  0
SECTION
  2
HEADER
  9
$ACADVER
  1
AC1015
  9
$ACADMAINTVER
 70
     6
  9
$DWGCODEPAGE
  3
ANSI_1254
  9
$INSBASE
 10
0.0
 20
0.0
 30
0.0
  9
$EXTMIN
 10
0.0
 20
0.0
 30
0.0
  9
$EXTMAX
 10
279.4
 20
215.9
 30
0.0
  9
$LIMMIN
 10
0.0
 20
0.0
  9
$LIMMAX
 10
279.4
 20
215.9
  9
$ORTHOMODE
 70
     0
  9
$REGENMODE
 70
     1
  9
$FILLMODE
 70
     1
  9
$QTEXTMODE
 70
     0
  9
$MIRRTEXT
 70
     1
  9
$LTSCALE
 40
1.0
  9
$ATTMODE
 70
     1
  9
$TEXTSIZE
 40
3.5
  9
$TRACEWID
 40
1.0
  9
$TEXTSTYLE
  7
Standard
  9
$CLAYER
  8
0
  9
$CELTYPE
  6
ByLayer
  9
$CECOLOR
 62
   256
  9
$CELTSCALE
 40
1.0
  9
$DISPSILH
 70
     0
  9
$DIMSCALE
 40
1.0
  9
$DIMASZ
 40
3.5
  9
$DIMEXO
 40
1.0
  9
$DIMDLI
 40
3.75
  9
$DIMRND
 40
0.0
  9
$DIMDLE
 40
0.0
  9
$DIMEXE
 40
1.0
  9
$DIMTP
 40
0.0
  9
$DIMTM
 40
0.0
  9
$DIMTXT
 40
3.5
  9
$DIMCEN
 40
2.5
  9
$DIMTSZ
 40
0.0
  9
$DIMTOL
 70
     0
  9
$DIMLIM
 70
     0
  9
$DIMTIH
 70
     1
  9
$DIMTOH
 70
     1
  9
$DIMSE1
 70
     0
  9
$DIMSE2
 70
     0
  9
$DIMTAD
 70
     1
  9
$DIMZIN
 70
     0
  9
$DIMBLK
  1

  9
$DIMASO
 70
     1
  9
$DIMSHO
 70
     1
  9
$DIMPOST
  1

  9
$DIMAPOST
  1

  9
$DIMALT
 70
     0
  9
$DIMALTD
 70
     3
  9
$DIMALTF
 40
0.0393700787
  9
$DIMLFAC
 40
1.0
  9
$DIMTOFL
 70
     1
  9
$DIMTVP
 40
0.0
  9
$DIMTIX
 70
     0
  9
$DIMSOXD
 70
     0
  9
$DIMSAH
 70
     0
  9
$DIMBLK1
  1

  9
$DIMBLK2
  1

  9
$DIMSTYLE
  2
ISO-25
  9
$DIMCLRD
 70
     0
  9
$DIMCLRE
 70
     0
  9
$DIMCLRT
 70
     0
  9
$DIMTFAC
 40
1.0
  9
$DIMGAP
 40
1.524
  9
$DIMJUST
 70
     0
  9
$DIMSD1
 70
     0
  9
$DIMSD2
 70
     0
  9
$DIMTOLJ
 70
     0
  9
$DIMTZIN
 70
     0
  9
$DIMALTZ
 70
     0
  9
$DIMALTTZ
 70
     0
  9
$DIMUPT
 70
     0
  9
$DIMDEC
 70
     2
  9
$DIMTDEC
 70
     2
  9
$DIMALTU
 70
     2
  9
$DIMALTTD
 70
     3
  9
$DIMTXSTY
  7
Standard
  9
$DIMAUNIT
 70
     0
  9
$DIMADEC
 70
     2
  9
$DIMALTRND
 40
0.0
  9
$DIMAZIN
 70
     0
  9
$DIMDSEP
 70
    44
  9
$DIMATFIT
 70
     3
  9
$DIMFRAC
 70
     0
  9
$DIMLDRBLK
  1

  9
$DIMLUNIT
 70
     2
  9
$DIMLWD
 70
    -2
  9
$DIMLWE
 70
    -2
  9
$DIMTMOVE
 70
     0
  9
$LUNITS
 70
     2
  9
$LUPREC
 70
     2
  9
$SKETCHINC
 40
1.0
  9
$FILLETRAD
 40
10.0
  9
$AUNITS
 70
     0
  9
$AUPREC
 70
     2
  9
$MENU
  1
.
  9
$ELEVATION
 40
0.0
  9
$PELEVATION
 40
0.0
  9
$THICKNESS
 40
0.0
  9
$LIMCHECK
 70
     0
  9
$CHAMFERA
 40
0.0
  9
$CHAMFERB
 40
0.0
  9
$CHAMFERC
 40
0.0
  9
$CHAMFERD
 40
0.0
  9
$SKPOLY
 70
     0
  9
$TDCREATE
 40
2459741.61442669
  9
$TDUCREATE
 40
2459741.48942669
  9
$TDUPDATE
 40
2459741.614426875
  9
$TDUUPDATE
 40
2459741.489426875
  9
$TDINDWG
 40
0.0000000116
  9
$TDUSRTIMER
 40
0.0000000116
  9
$USRTIMER
 70
     1
  9
$ANGBASE
 50
0.0
  9
$ANGDIR
 70
     0
  9
$PDMODE
 70
     0
  9
$PDSIZE
 40
-1.0
  9
$PLINEWID
 40
0.0
  9
$SPLFRAME
 70
     0
  9
$SPLINETYPE
 70
     6
  9
$SPLINESEGS
 70
     8
  9
$HANDSEED
  5
13B
  9
$SURFTAB1
 70
     6
  9
$SURFTAB2
 70
     6
  9
$SURFTYPE
 70
     6
  9
$SURFU
 70
     6
  9
$SURFV
 70
     6
  9
$UCSBASE
  2

  9
$UCSNAME
  2

  9
$UCSORG
 10
0.0
 20
0.0
 30
0.0
  9
$UCSXDIR
 10
1.0
 20
0.0
 30
0.0
  9
$UCSYDIR
 10
0.0
 20
1.0
 30
0.0
  9
$UCSORTHOREF
  2

  9
$UCSORTHOVIEW
 70
     0
  9
$UCSORGTOP
 10
0.0
 20
0.0
 30
0.0
  9
$UCSORGBOTTOM
 10
0.0
 20
0.0
 30
0.0
  9
$UCSORGLEFT
 10
0.0
 20
0.0
 30
0.0
  9
$UCSORGRIGHT
 10
0.0
 20
0.0
 30
0.0
  9
$UCSORGFRONT
 10
0.0
 20
0.0
 30
0.0
  9
$UCSORGBACK
 10
0.0
 20
0.0
 30
0.0
  9
$PUCSBASE
  2

  9
$PUCSNAME
  2

  9
$PUCSORG
 10
0.0
 20
0.0
 30
0.0
  9
$PUCSXDIR
 10
1.0
 20
0.0
 30
0.0
  9
$PUCSYDIR
 10
0.0
 20
1.0
 30
0.0
  9
$PUCSORTHOREF
  2

  9
$PUCSORTHOVIEW
 70
     0
  9
$PUCSORGTOP
 10
0.0
 20
0.0
 30
0.0
  9
$PUCSORGBOTTOM
 10
0.0
 20
0.0
 30
0.0
  9
$PUCSORGLEFT
 10
0.0
 20
0.0
 30
0.0
  9
$PUCSORGRIGHT
 10
0.0
 20
0.0
 30
0.0
  9
$PUCSORGFRONT
 10
0.0
 20
0.0
 30
0.0
  9
$PUCSORGBACK
 10
0.0
 20
0.0
 30
0.0
  9
$USERI1
 70
     0
  9
$USERI2
 70
     0
  9
$USERI3
 70
     0
  9
$USERI4
 70
     0
  9
$USERI5
 70
     0
  9
$USERR1
 40
0.0
  9
$USERR2
 40
0.0
  9
$USERR3
 40
0.0
  9
$USERR4
 40
0.0
  9
$USERR5
 40
0.0
  9
$WORLDVIEW
 70
     1
  9
$SHADEDGE
 70
     3
  9
$SHADEDIF
 70
    70
  9
$TILEMODE
 70
     1
  9
$MAXACTVP
 70
    64
  9
$PINSBASE
 10
0.0
 20
0.0
 30
0.0
  9
$PLIMCHECK
 70
     0
  9
$PEXTMIN
 10
1.0000000000E+20
 20
1.0000000000E+20
 30
1.0000000000E+20
  9
$PEXTMAX
 10
-1.0000000000E+20
 20
-1.0000000000E+20
 30
-1.0000000000E+20
  9
$PLIMMIN
 10
0.0
 20
0.0
  9
$PLIMMAX
 10
420.0
 20
297.0
  9
$UNITMODE
 70
     0
  9
$VISRETAIN
 70
     1
  9
$PLINEGEN
 70
     0
  9
$PSLTSCALE
 70
     1
  9
$TREEDEPTH
 70
  3020
  9
$CMLSTYLE
  2
Standard
  9
$CMLJUST
 70
     0
  9
$CMLSCALE
 40
20.0
  9
$PROXYGRAPHICS
 70
     1
  9
$MEASUREMENT
 70
     1
  9
$CELWEIGHT
370
    -1
  9
$ENDCAPS
280
     0
  9
$JOINSTYLE
280
     0
  9
$LWDISPLAY
290
     1
  9
$INSUNITS
 70
     4
  9
$HYPERLINKBASE
  1

  9
$STYLESHEET
  1

  9
$XEDIT
290
     1
  9
$CEPSNTYPE
380
     0
  9
$PSTYLEMODE
290
     1
  9
$FINGERPRINTGUID
  2
{471e94bc-26e3-40b6-86a5-cc098d0dac18}
  9
$VERSIONGUID
  2
{FAEB1C32-E019-11D5-929B-00C0DF256EC4}
  9
$EXTNAMES
290
     1
  9
$PSVPSCALE
 40
0.0
  9
$OLESTARTUP
290
     0
  0
ENDSEC
  0
SECTION
  2
CLASSES
  0
CLASS
  1
ACDBDICTIONARYWDFLT
  2
AcDbDictionaryWithDefault
  3
ObjectDBX Classes
 90
        0
280
     0
281
     0
  0
CLASS
  1
VISUALSTYLE
  2
AcDbVisualStyle
  3
ObjectDBX Classes
 90
     4095
280
     0
281
     0
  0
CLASS
  1
MATERIAL
  2
AcDbMaterial
  3
ObjectDBX Classes
 90
     1153
280
     0
281
     0
  0
CLASS
  1
SCALE
  2
AcDbScale
  3
ObjectDBX Classes
 90
     1153
280
     0
281
     0
  0
CLASS
  1
TABLESTYLE
  2
AcDbTableStyle
  3
ObjectDBX Classes
 90
     4095
280
     0
281
     0
  0
CLASS
  1
MLEADERSTYLE
  2
AcDbMLeaderStyle
  3
ACDB_MLEADERSTYLE_CLASS
 90
     4095
280
     0
281
     0
  0
CLASS
  1
SUN
  2
AcDbSun
  3
SCENEOE
 90
     1153
280
     0
281
     0
  0
CLASS
  1
ACDBPLACEHOLDER
  2
AcDbPlaceHolder
  3
ObjectDBX Classes
 90
        0
280
     0
281
     0
  0
CLASS
  1
LAYOUT
  2
AcDbLayout
  3
ObjectDBX Classes
 90
        0
280
     0
281
     0
  0
ENDSEC
  0
SECTION
  2
TABLES
  0
TABLE
  2
VPORT
  5
8
330
0
100
AcDbSymbolTable
 70
     1
  0
VPORT
  5
29
330
8
100
AcDbSymbolTableRecord
100
AcDbViewportTableRecord
  2
*Active
 70
     0
 10
0.0
 20
0.0
 11
1.0
 21
1.0
 12
139.7
 22
107.95
 13
0.0
 23
0.0
 14
10.0
 24
10.0
 15
10.0
 25
10.0
 16
0.0
 26
0.0
 36
1.0
 17
0.0
 27
0.0
 37
0.0
 40
215.9
 41
1.2941176471
 42
50.0
 43
0.0
 44
0.0
 50
0.0
 51
0.0
 71
     0
 72
  2000
 73
     1
 74
     3
 75
     0
 76
     0
 77
     0
 78
     0
281
     0
 65
     1
110
0.0
120
0.0
130
0.0
111
1.0
121
0.0
131
0.0
112
0.0
122
1.0
132
0.0
 79
     0
146
0.0
  0
ENDTAB
  0
TABLE
  2
LTYPE
  5
5
330
0
100
AcDbSymbolTable
 70
     6
  0
LTYPE
  5
14
330
5
100
AcDbSymbolTableRecord
100
AcDbLinetypeTableRecord
  2
ByBlock
 70
     0
  3

 72
    65
 73
     0
 40
0.0
  0
LTYPE
  5
15
330
5
100
AcDbSymbolTableRecord
100
AcDbLinetypeTableRecord
  2
ByLayer
 70
     0
  3

 72
    65
 73
     0
 40
0.0
  0
LTYPE
  5
16
330
5
100
AcDbSymbolTableRecord
100
AcDbLinetypeTableRecord
  2
Continuous
 70
     0
  3
Solid line
 72
    65
 73
     0
 40
0.0
  0
LTYPE
  5
6E
330
5
100
AcDbSymbolTableRecord
100
AcDbLinetypeTableRecord
  2
HIDDEN
 70
     0
  3
Hidden __ __ __ __ __ __ __ __ __ __ __ __ __ __
 72
    65
 73
     2
 40
1.905
 49
1.27
 74
     0
 49
-0.635
 74
     0
  0
LTYPE
  5
6F
330
5
100
AcDbSymbolTableRecord
100
AcDbLinetypeTableRecord
  2
PHANTOM
 70
     0
  3
Phantom ______  __  __  ______  __  __  ______
 72
    65
 73
     6
 40
12.7
 49
6.35
 74
     0
 49
-1.27
 74
     0
 49
1.27
 74
     0
 49
-1.27
 74
     0
 49
1.27
 74
     0
 49
-1.27
 74
     0
  0
LTYPE
  5
70
330
5
100
AcDbSymbolTableRecord
100
AcDbLinetypeTableRecord
  2
CENTER
 70
     0
  3
Center ____ _ ____ _ ____ _ ____ _ ____ _ ____
 72
    65
 73
     4
 40
10.16
 49
6.35
 74
     0
 49
-1.27
 74
     0
 49
1.27
 74
     0
 49
-1.27
 74
     0
  0
LTYPE
  5
71
330
5
100
AcDbSymbolTableRecord
100
AcDbLinetypeTableRecord
  2
CENTERX2
 70
     0
  3
Center (2x) ________  __  ________  __  _____
 72
    65
 73
     4
 40
20.32
 49
12.7
 74
     0
 49
-2.54
 74
     0
 49
2.54
 74
     0
 49
-2.54
 74
     0
  0
LTYPE
  5
72
330
5
100
AcDbSymbolTableRecord
100
AcDbLinetypeTableRecord
  2
DOT2
 70
     0
  3
Dot (.5x) ........................................
 72
    65
 73
     2
 40
0.635
 49
0.0
 74
     0
 49
-0.635
 74
     0
  0
ENDTAB
  0
TABLE
  2
LAYER
  5
2
330
0
100
AcDbSymbolTable
 70
    17
  0
LAYER
  5
10
330
2
100
AcDbSymbolTableRecord
100
AcDbLayerTableRecord
  2
0
 70
     0
 62
     7
  6
Continuous
370
    -3
390
F
  0
LAYER
  5
73
330
2
100
AcDbSymbolTableRecord
100
AcDbLayerTableRecord
  2
FORMAT
 70
     0
 62
     7
  6
Continuous
370
    -3
390
F
  0
LAYER
  5
74
330
2
100
AcDbSymbolTableRecord
100
AcDbLayerTableRecord
  2
YARDIMCI_GEOMETRI
 70
     0
 62
    -6
  6
Continuous
290
     0
370
    -3
390
F
  0
LAYER
  5
75
330
2
100
AcDbSymbolTableRecord
100
AcDbLayerTableRecord
  2
SAYFA_CERCEVESI
 70
     0
 62
     7
  6
Continuous
370
    25
390
F
  0
LAYER
  5
76
330
2
100
AcDbSymbolTableRecord
100
AcDbLayerTableRecord
  2
ANTET
 70
     0
 62
     7
  6
Continuous
370
    -3
390
F
  0
LAYER
  5
77
330
2
100
AcDbSymbolTableRecord
100
AcDbLayerTableRecord
  2
OLCU
 70
     0
 62
   150
  6
Continuous
370
    -3
390
F
  0
LAYER
  5
78
330
2
100
AcDbSymbolTableRecord
100
AcDbLayerTableRecord
  2
METIN
 70
     0
 62
    96
  6
Continuous
370
    -3
390
F
  0
LAYER
  5
79
330
2
100
AcDbSymbolTableRecord
100
AcDbLayerTableRecord
  2
BALON
 70
     0
 62
     5
  6
Continuous
370
    -3
390
F
  0
LAYER
  5
7A
330
2
100
AcDbSymbolTableRecord
100
AcDbLayerTableRecord
  2
VURGU
 70
     0
 62
     7
  6
Continuous
370
    -3
390
F
  0
LAYER
  5
7B
330
2
100
AcDbSymbolTableRecord
100
AcDbLayerTableRecord
  2
SILIK
 70
     0
 62
     7
  6
Continuous
370
    -3
390
F
  0
LAYER
  5
7C
330
2
100
AcDbSymbolTableRecord
100
AcDbLayerTableRecord
  2
MODEL
 70
     0
 62
     7
  6
Continuous
370
    -3
390
F
  0
LAYER
  5
7D
330
2
100
AcDbSymbolTableRecord
100
AcDbLayerTableRecord
  2
DETAYLANDıRMA
 70
     0
 62
   190
  6
Continuous
370
    -3
390
F
  0
LAYER
  5
7E
330
2
100
AcDbSymbolTableRecord
100
AcDbLayerTableRecord
  2
TOLERANS
 70
     0
 62
   230
  6
Continuous
370
    -3
390
F
  0
LAYER
  5
7F
330
2
100
AcDbSymbolTableRecord
100
AcDbLayerTableRecord
  2
MERKEZ_CIZGILERI
 70
     0
 62
    30
  6
Continuous
370
    -3
390
F
  0
LAYER
  5
80
330
2
100
AcDbSymbolTableRecord
100
AcDbLayerTableRecord
  2
KESIT-DETAY_CIZGILERI
 70
     0
 62
     7
  6
Continuous
370
    -3
390
F
  0
LAYER
  5
81
330
2
100
AcDbSymbolTableRecord
100
AcDbLayerTableRecord
  2
\U+041E\U+0421\U+0415\U+0412\U+042B\U+0415
 70
     0
 62
     7
  6
Continuous
370
    -3
390
F
  0
LAYER
  5
82
330
2
100
AcDbSymbolTableRecord
100
AcDbLayerTableRecord
  2
\U+0412\U+041E\U+0414\U+042F\U+041D\U+042B\U+0415_\U+0417\U+041D\U+0410\U+041A\U+0418
 70
     0
 62
    11
  6
Continuous
370
    -3
390
F
  0
ENDTAB
  0
TABLE
  2
STYLE
  5
3
330
0
100
AcDbSymbolTable
 70
     1
  0
STYLE
  5
11
330
3
100
AcDbSymbolTableRecord
100
AcDbTextStyleTableRecord
  2
Standard
 70
     0
 40
0.0
 41
1.0
 50
0.0
 71
     0
 42
3.5
  3
txt
  4

  0
ENDTAB
  0
TABLE
  2
VIEW
  5
6
330
0
100
AcDbSymbolTable
 70
     0
  0
ENDTAB
  0
TABLE
  2
UCS
  5
7
330
0
100
AcDbSymbolTable
 70
     0
  0
ENDTAB
  0
TABLE
  2
APPID
  5
9
330
0
100
AcDbSymbolTable
 70
     1
  0
APPID
  5
12
330
9
100
AcDbSymbolTableRecord
100
AcDbRegAppTableRecord
  2
ACAD
 70
     0
  0
ENDTAB
  0
TABLE
  2
DIMSTYLE
  5
A
330
0
100
AcDbSymbolTable
 70
     1
100
AcDbDimStyleTable
  0
DIMSTYLE
105
27
330
A
100
AcDbSymbolTableRecord
100
AcDbDimStyleTableRecord
  2
ISO-25
 70
     0
 41
2.5
 42
0.625
 43
3.75
 44
1.25
 73
     0
 74
     0
 77
     1
 78
     8
140
2.5
141
2.5
143
0.0393700787
147
0.625
171
     3
172
     1
178
     0
271
     2
272
     2
274
     3
278
    44
283
     0
284
     8
340
11
  0
ENDTAB
  0
TABLE
  2
BLOCK_RECORD
  5
1
330
0
100
AcDbSymbolTable
 70
     5
  0
BLOCK_RECORD
  5
1F
330
1
100
AcDbSymbolTableRecord
100
AcDbBlockTableRecord
  2
*Model_Space
340
22
  0
BLOCK_RECORD
  5
1B
330
1
100
AcDbSymbolTableRecord
100
AcDbBlockTableRecord
  2
*Paper_Space
340
1E
  0
BLOCK_RECORD
  5
23
330
1
100
AcDbSymbolTableRecord
100
AcDbBlockTableRecord
  2
*Paper_Space0
340
26
  0
BLOCK_RECORD
  5
C4
330
1
100
AcDbSymbolTableRecord
100
AcDbBlockTableRecord
  2
SW_CENTERMARKSYMBOL_0
340
0
102
{BLKREFS
331
CF
102
}
  0
BLOCK_RECORD
  5
EF
330
1
100
AcDbSymbolTableRecord
100
AcDbBlockTableRecord
  2
SW_CENTERMARKSYMBOL_1
340
0
102
{BLKREFS
331
FA
102
}
  0
BLOCK_RECORD
  5
FB
330
1
100
AcDbSymbolTableRecord
100
AcDbBlockTableRecord
  2
SW_CENTERMARKSYMBOL_2
340
0
102
{BLKREFS
331
106
102
}
  0
BLOCK_RECORD
  5
107
330
1
100
AcDbSymbolTableRecord
100
AcDbBlockTableRecord
  2
SW_CENTERMARKSYMBOL_3
340
0
102
{BLKREFS
331
112
102
}
  0
ENDTAB
  0
ENDSEC
  0
SECTION
  2
BLOCKS
  0
BLOCK
  5
20
330
1F
100
AcDbEntity
  8
0
100
AcDbBlockBegin
  2
*Model_Space
 70
     0
 10
0.0
 20
0.0
 30
0.0
  3
*Model_Space
  1

  0
ENDBLK
  5
21
330
1F
100
AcDbEntity
  8
0
100
AcDbBlockEnd
  0
BLOCK
  5
1C
330
1B
100
AcDbEntity
 67
     1
  8
0
100
AcDbBlockBegin
  2
*Paper_Space
 70
     0
 10
0.0
 20
0.0
 30
0.0
  3
*Paper_Space
  1

  0
ENDBLK
  5
1D
330
1B
100
AcDbEntity
 67
     1
  8
0
100
AcDbBlockEnd
  0
BLOCK
  5
24
330
23
100
AcDbEntity
  8
0
100
AcDbBlockBegin
  2
*Paper_Space0
 70
     0
 10
0.0
 20
0.0
 30
0.0
  3
*Paper_Space0
  1

  0
ENDBLK
  5
25
330
23
100
AcDbEntity
  8
0
100
AcDbBlockEnd
  0
BLOCK
  5
C5
330
C4
100
AcDbEntity
  8
0
100
AcDbBlockBegin
  2
SW_CENTERMARKSYMBOL_0
 70
     0
 10
0.0
 20
0.0
 30
0.0
  3
SW_CENTERMARKSYMBOL_0
  1

  0
LINE
  5
C7
330
C4
100
AcDbEntity
  8
FORMAT
 62
     0
100
AcDbLine
 10
0.0
 20
0.0
 30
0.0
 11
0.0
 21
2.5
 31
0.0
  0
LINE
  5
C8
330
C4
100
AcDbEntity
  8
FORMAT
 62
     0
100
AcDbLine
 10
0.0
 20
0.0
 30
0.0
 11
-2.5
 21
0.0
 31
0.0
  0
LINE
  5
C9
330
C4
100
AcDbEntity
  8
FORMAT
 62
     0
100
AcDbLine
 10
0.0
 20
0.0
 30
0.0
 11
0.0
 21
-2.5
 31
0.0
  0
LINE
  5
CA
330
C4
100
AcDbEntity
  8
FORMAT
 62
     0
100
AcDbLine
 10
0.0
 20
0.0
 30
0.0
 11
2.5
 21
0.0
 31
0.0
  0
LINE
  5
CB
330
C4
100
AcDbEntity
  8
FORMAT
 62
     0
100
AcDbLine
 10
0.0
 20
5.0
 30
0.0
 11
0.0
 21
15.5
 31
0.0
  0
LINE
  5
CC
330
C4
100
AcDbEntity
  8
FORMAT
 62
     0
100
AcDbLine
 10
-5.0
 20
0.0
 30
0.0
 11
-15.5
 21
0.0
 31
0.0
  0
LINE
  5
CD
330
C4
100
AcDbEntity
  8
FORMAT
 62
     0
100
AcDbLine
 10
0.0
 20
-5.0
 30
0.0
 11
0.0
 21
-15.5
 31
0.0
  0
LINE
  5
CE
330
C4
100
AcDbEntity
  8
FORMAT
 62
     0
100
AcDbLine
 10
5.0
 20
0.0
 30
0.0
 11
15.5
 21
0.0
 31
0.0
  0
ENDBLK
  5
C6
330
C4
100
AcDbEntity
  8
0
100
AcDbBlockEnd
  0
BLOCK
  5
F0
330
EF
100
AcDbEntity
  8
0
100
AcDbBlockBegin
  2
SW_CENTERMARKSYMBOL_1
 70
     0
 10
0.0
 20
0.0
 30
0.0
  3
SW_CENTERMARKSYMBOL_1
  1

  0
LINE
  5
F2
330
EF
100
AcDbEntity
  8
FORMAT
 62
     0
100
AcDbLine
 10
0.0
 20
0.0
 30
0.0
 11
0.0
 21
2.5
 31
0.0
  0
LINE
  5
F3
330
EF
100
AcDbEntity
  8
FORMAT
 62
     0
100
AcDbLine
 10
0.0
 20
0.0
 30
0.0
 11
-2.5
 21
0.0
 31
0.0
  0
LINE
  5
F4
330
EF
100
AcDbEntity
  8
FORMAT
 62
     0
100
AcDbLine
 10
0.0
 20
0.0
 30
0.0
 11
0.0
 21
-2.5
 31
0.0
  0
LINE
  5
F5
330
EF
100
AcDbEntity
  8
FORMAT
 62
     0
100
AcDbLine
 10
0.0
 20
0.0
 30
0.0
 11
2.5
 21
0.0
 31
0.0
  0
LINE
  5
F6
330
EF
100
AcDbEntity
  8
FORMAT
 62
     0
100
AcDbLine
 10
0.0
 20
5.0
 30
0.0
 11
0.0
 21
18.5
 31
0.0
  0
LINE
  5
F7
330
EF
100
AcDbEntity
  8
FORMAT
 62
     0
100
AcDbLine
 10
-5.0
 20
0.0
 30
0.0
 11
-18.5
 21
0.0
 31
0.0
  0
LINE
  5
F8
330
EF
100
AcDbEntity
  8
FORMAT
 62
     0
100
AcDbLine
 10
0.0
 20
-5.0
 30
0.0
 11
0.0
 21
-18.5
 31
0.0
  0
LINE
  5
F9
330
EF
100
AcDbEntity
  8
FORMAT
 62
     0
100
AcDbLine
 10
5.0
 20
0.0
 30
0.0
 11
18.5
 21
0.0
 31
0.0
  0
ENDBLK
  5
F1
330
EF
100
AcDbEntity
  8
0
100
AcDbBlockEnd
  0
BLOCK
  5
FC
330
FB
100
AcDbEntity
  8
0
100
AcDbBlockBegin
  2
SW_CENTERMARKSYMBOL_2
 70
     0
 10
0.0
 20
0.0
 30
0.0
  3
SW_CENTERMARKSYMBOL_2
  1

  0
LINE
  5
FE
330
FB
100
AcDbEntity
  8
FORMAT
 62
     0
100
AcDbLine
 10
0.0
 20
0.0
 30
0.0
 11
0.0
 21
2.5
 31
0.0
  0
LINE
  5
FF
330
FB
100
AcDbEntity
  8
FORMAT
 62
     0
100
AcDbLine
 10
0.0
 20
0.0
 30
0.0
 11
-2.5
 21
0.0
 31
0.0
  0
LINE
  5
100
330
FB
100
AcDbEntity
  8
FORMAT
 62
     0
100
AcDbLine
 10
0.0
 20
0.0
 30
0.0
 11
0.0
 21
-2.5
 31
0.0
  0
LINE
  5
101
330
FB
100
AcDbEntity
  8
FORMAT
 62
     0
100
AcDbLine
 10
0.0
 20
0.0
 30
0.0
 11
2.5
 21
0.0
 31
0.0
  0
LINE
  5
102
330
FB
100
AcDbEntity
  8
FORMAT
 62
     0
100
AcDbLine
 10
0.0
 20
5.0
 30
0.0
 11
0.0
 21
9.5
 31
0.0
  0
LINE
  5
103
330
FB
100
AcDbEntity
  8
FORMAT
 62
     0
100
AcDbLine
 10
-5.0
 20
0.0
 30
0.0
 11
-9.5
 21
0.0
 31
0.0
  0
LINE
  5
104
330
FB
100
AcDbEntity
  8
FORMAT
 62
     0
100
AcDbLine
 10
0.0
 20
-5.0
 30
0.0
 11
0.0
 21
-9.5
 31
0.0
  0
LINE
  5
105
330
FB
100
AcDbEntity
  8
FORMAT
 62
     0
100
AcDbLine
 10
5.0
 20
0.0
 30
0.0
 11
9.5
 21
0.0
 31
0.0
  0
ENDBLK
  5
FD
330
FB
100
AcDbEntity
  8
0
100
AcDbBlockEnd
  0
BLOCK
  5
108
330
107
100
AcDbEntity
  8
0
100
AcDbBlockBegin
  2
SW_CENTERMARKSYMBOL_3
 70
     0
 10
0.0
 20
0.0
 30
0.0
  3
SW_CENTERMARKSYMBOL_3
  1

  0
LINE
  5
10A
330
107
100
AcDbEntity
  8
FORMAT
 62
     0
100
AcDbLine
 10
0.0
 20
0.0
 30
0.0
 11
0.0
 21
2.5
 31
0.0
  0
LINE
  5
10B
330
107
100
AcDbEntity
  8
FORMAT
 62
     0
100
AcDbLine
 10
0.0
 20
0.0
 30
0.0
 11
-2.5
 21
0.0
 31
0.0
  0
LINE
  5
10C
330
107
100
AcDbEntity
  8
FORMAT
 62
     0
100
AcDbLine
 10
0.0
 20
0.0
 30
0.0
 11
0.0
 21
-2.5
 31
0.0
  0
LINE
  5
10D
330
107
100
AcDbEntity
  8
FORMAT
 62
     0
100
AcDbLine
 10
0.0
 20
0.0
 30
0.0
 11
2.5
 21
0.0
 31
0.0
  0
LINE
  5
10E
330
107
100
AcDbEntity
  8
FORMAT
 62
     0
100
AcDbLine
 10
0.0
 20
5.0
 30
0.0
 11
0.0
 21
9.5
 31
0.0
  0
LINE
  5
10F
330
107
100
AcDbEntity
  8
FORMAT
 62
     0
100
AcDbLine
 10
-5.0
 20
0.0
 30
0.0
 11
-9.5
 21
0.0
 31
0.0
  0
LINE
  5
110
330
107
100
AcDbEntity
  8
FORMAT
 62
     0
100
AcDbLine
 10
0.0
 20
-5.0
 30
0.0
 11
0.0
 21
-9.5
 31
0.0
  0
LINE
  5
111
330
107
100
AcDbEntity
  8
FORMAT
 62
     0
100
AcDbLine
 10
5.0
 20
0.0
 30
0.0
 11
9.5
 21
0.0
 31
0.0
  0
ENDBLK
  5
109
330
107
100
AcDbEntity
  8
0
100
AcDbBlockEnd
  0
ENDSEC
  0
SECTION
  2
ENTITIES
  0
LINE
  5
83
330
1F
100
AcDbEntity
  8
0
  6
Continuous
 62
     7
370
    25
100
AcDbLine
 10
171.1807140607
 20
30.7384285714
 30
0.0
 11
201.1807140607
 21
30.7384285714
 31
0.0
  0
LINE
  5
84
330
1F
100
AcDbEntity
  8
0
  6
Continuous
 62
     7
370
    25
100
AcDbLine
 10
81.1807140607
 20
30.7384285714
 30
0.0
 11
111.1807140607
 21
30.7384285714
 31
0.0
  0
LINE
  5
85
330
1F
100
AcDbEntity
  8
0
  6
Continuous
 62
     7
370
    25
100
AcDbLine
 10
84.2040618387
 20
119.7384285714
 30
0.0
 11
81.1807140607
 21
119.7384285714
 31
0.0
  0
LINE
  5
86
330
1F
100
AcDbEntity
  8
0
  6
Continuous
 62
     7
370
    25
100
AcDbLine
 10
125.2383247762
 20
119.7384285714
 30
0.0
 11
98.1759792824
 21
119.7384285714
 31
0.0
  0
LINE
  5
87
330
1F
100
AcDbEntity
  8
0
  6
Continuous
 62
     7
370
    25
100
AcDbLine
 10
184.2040618387
 20
119.7384285714
 30
0.0
 11
157.130011578
 21
119.7384285714
 31
0.0
  0
LINE
  5
88
330
1F
100
AcDbEntity
  8
0
  6
Continuous
 62
     7
370
    25
100
AcDbLine
 10
201.1807140607
 20
119.7384285714
 30
0.0
 11
198.1759792824
 21
119.7384285714
 31
0.0
  0
LINE
  5
89
330
1F
100
AcDbEntity
  8
0
  6
Continuous
 62
     7
370
    25
100
AcDbLine
 10
125.1807140607
 20
167.7384285714
 30
0.0
 11
125.1807140607
 21
119.7177471198
 31
0.0
  0
LINE
  5
8A
330
1F
100
AcDbEntity
  8
0
  6
Continuous
 62
     7
370
    25
100
AcDbLine
 10
157.1807140607
 20
119.7202260959
 30
0.0
 11
157.1807140607
 21
167.7384285714
 31
0.0
  0
LINE
  5
8B
330
1F
100
AcDbEntity
  8
0
  6
Continuous
 62
     7
370
    25
100
AcDbLine
 10
98.1807140607
 20
119.7376918724
 30
0.0
 11
98.1807140607
 21
134.7384285714
 31
0.0
  0
LINE
  5
8C
330
1F
100
AcDbEntity
  8
0
  6
Continuous
 62
     7
370
    25
100
AcDbLine
 10
84.1807140607
 20
134.7384285714
 30
0.0
 11
84.1807140607
 21
119.734766233
 31
0.0
  0
LINE
  5
8D
330
1F
100
AcDbEntity
  8
0
  6
Continuous
 62
     7
370
    25
100
AcDbLine
 10
198.1807140607
 20
119.7376918724
 30
0.0
 11
198.1807140607
 21
134.7384285714
 31
0.0
  0
LINE
  5
8E
330
1F
100
AcDbEntity
  8
0
  6
Continuous
 62
     7
370
    25
100
AcDbLine
 10
184.1807140607
 20
134.7384285714
 30
0.0
 11
184.1807140607
 21
119.734766233
 31
0.0
  0
LINE
  5
8F
330
1F
100
AcDbEntity
  8
0
  6
Continuous
 62
     7
370
    25
100
AcDbLine
 10
201.1807140607
 20
77.2384285714
 30
0.0
 11
81.1807140607
 21
77.2384285714
 31
0.0
  0
LINE
  5
90
330
1F
100
AcDbEntity
  8
0
  6
Continuous
 62
     7
370
    25
100
AcDbLine
 10
81.1807140607
 20
84.2384285714
 30
0.0
 11
81.1807140607
 21
77.2384285714
 31
0.0
  0
LINE
  5
91
330
1F
100
AcDbEntity
  8
0
  6
Continuous
 62
     7
370
    25
100
AcDbLine
 10
201.1807140607
 20
84.2384285714
 30
0.0
 11
81.1807140607
 21
84.2384285714
 31
0.0
  0
LINE
  5
92
330
1F
100
AcDbEntity
  8
0
  6
Continuous
 62
     7
370
    25
100
AcDbLine
 10
201.1807140607
 20
84.2384285714
 30
0.0
 11
201.1807140607
 21
77.2384285714
 31
0.0
  0
LINE
  5
93
330
1F
100
AcDbEntity
  8
0
  6
Continuous
 62
     7
370
    25
100
AcDbLine
 10
81.1807140607
 20
73.2384285714
 30
0.0
 11
81.1807140607
 21
66.2384285714
 31
0.0
  0
LINE
  5
94
330
1F
100
AcDbEntity
  8
0
  6
Continuous
 62
     7
370
    25
100
AcDbLine
 10
201.1807140607
 20
73.2384285714
 30
0.0
 11
81.1807140607
 21
73.2384285714
 31
0.0
  0
LINE
  5
95
330
1F
100
AcDbEntity
  8
0
  6
Continuous
 62
     7
370
    25
100
AcDbLine
 10
201.1807140607
 20
73.2384285714
 30
0.0
 11
201.1807140607
 21
66.2384285714
 31
0.0
  0
LINE
  5
96
330
1F
100
AcDbEntity
  8
0
  6
Continuous
 62
     7
370
    25
100
AcDbLine
 10
201.1807140607
 20
66.2384285714
 30
0.0
 11
81.1807140607
 21
66.2384285714
 31
0.0
  0
SPLINE
  5
97
330
1F
100
AcDbEntity
  8
0
  6
Continuous
 62
     7
370
    25
100
AcDbSpline
210
0.0
220
0.0
230
1.0
 70
     8
 71
     3
 72
    27
 73
    23
 74
     0
 42
0.00000001
 43
0.00000001
 40
0.0
 40
0.0
 40
0.0
 40
0.0
 40
0.0349712688734919
 40
0.0872207737365614
 40
0.1409744098648137
 40
0.1934522009238936
 40
0.2474199974340926
 40
0.300453382979798
 40
0.3550207397457311
 40
0.4080830383659235
 40
0.4627162977139354
 40
0.5152174362392821
 40
0.5692588784876259
 40
0.6214888094731501
 40
0.6752100267263587
 40
0.72787618116806
 40
0.7820418283639085
 40
0.8351744065268677
 40
0.8898587999698915
 40
0.9427649217897286
 40
0.997238384342692
 40
1.0
 40
1.0
 40
1.0
 40
1.0
 10
184.2040618386533
 20
119.7347640496112
 30
0.0
 10
184.2029992903752
 20
119.734925382545
 30
0.0
 10
184.2003492211632
 20
119.7353277580885
 30
0.0
 10
184.419441277075
 20
119.7011314639118
 30
0.0
 10
184.8227711232895
 20
119.6410623007642
 30
0.0
 10
185.4152704173343
 20
119.5593457688738
 30
0.0
 10
186.1629780831068
 20
119.4674193190367
 30
0.0
 10
187.0626417672026
 20
119.3734957731847
 30
0.0
 10
188.0746712433459
 20
119.2897625654673
 30
0.0
 10
189.1864264483424
 20
119.2247244179108
 30
0.0
 10
190.3422783795772
 20
119.187160103678
 30
0.0
 10
191.5289027935306
 20
119.1805373664602
 30
0.0
 10
192.6884480326233
 20
119.2052925546445
 30
0.0
 10
193.8131374245988
 20
119.258742113873
 30
0.0
 10
194.8548704804857
 20
119.3339961356951
 30
0.0
 10
195.805197155267
 20
119.4241244593624
 30
0.0
 10
196.6233197914118
 20
119.5181106437154
 30
0.0
 10
197.2955316032262
 20
119.6065158175481
 30
0.0
 10
197.7956213241247
 20
119.6789341494741
 30
0.0
 10
198.0889314091698
 20
119.7239268708608
 30
0.0
 10
198.2099753647131
 20
119.743005212238
 30
0.0
 10
198.1775441038562
 20
119.7379327079052
 30
0.0
 10
198.1759792824116
 20
119.7376879575209
 30
0.0
  0
SPLINE
  5
98
330
1F
100
AcDbEntity
  8
0
  6
Continuous
 62
     7
370
    25
100
AcDbSpline
210
0.0
220
0.0
230
1.0
 70
     8
 71
     3
 72
    17
 73
    13
 74
     0
 42
0.00000001
 43
0.00000001
 40
0.0
 40
0.0
 40
0.0
 40
0.0
 40
0.1010568640407698
 40
0.2051792649672088
 40
0.3062009140401186
 40
0.4099355566353038
 40
0.5151506319090087
 40
0.62323030354361
 40
0.7314733907187649
 40
0.8431068611048136
 40
0.946965369365259
 40
1.0
 40
1.0
 40
1.0
 40
1.0
 10
141.1807140607425
 20
116.7625179654176
 30
0.0
 10
140.326840040085
 20
116.7779170403225
 30
0.0
 10
138.5931899254089
 20
116.8091823175519
 30
0.0
 10
136.082296546588
 20
117.0525715392013
 30
0.0
 10
133.6979938731011
 20
117.4109467322132
 30
0.0
 10
131.510109850858
 20
117.8577243482275
 30
0.0
 10
129.5361424342863
 20
118.3522435084977
 30
0.0
 10
127.8552374234135
 20
118.8403246829234
 30
0.0
 10
126.5105132403993
 20
119.273593050109
 30
0.0
 10
125.6286934735099
 20
119.577853653521
 30
0.0
 10
125.1933721286693
 20
119.7338565590829
 30
0.0
 10
125.2269682650048
 20
119.7218168816272
 30
0.0
 10
125.2383247761554
 20
119.7177471061652
 30
0.0
  0
SPLINE
  5
99
330
1F
100
AcDbEntity
  8
0
  6
Continuous
 62
     7
370
    25
100
AcDbSpline
210
0.0
220
0.0
230
1.0
 70
     8
 71
     3
 72
    17
 73
    13
 74
     0
 42
0.00000001
 43
0.00000001
 40
0.0
 40
0.0
 40
0.0
 40
0.0
 40
0.0450154462799467
 40
0.1492384925388542
 40
0.2484457406205731
 40
0.350321941023269
 40
0.4535816642564008
 40
0.559571652628884
 40
0.6675697133113269
 40
0.7787922138143767
 40
0.8875102696438988
 40
1.0
 40
1.0
 40
1.0
 40
1.0
 10
157.1300115779592
 20
119.7202248622093
 30
0.0
 10
157.1414535794947
 20
119.7243304572677
 30
0.0
 10
157.1793869379727
 20
119.7379416256138
 30
0.0
 10
156.7985092821179
 20
119.6012235579607
 30
0.0
 10
156.0205769623082
 20
119.3316012374025
 30
0.0
 10
154.8539442116145
 20
118.9495541133814
 30
0.0
 10
153.3195325098758
 20
118.4900908998839
 30
0.0
 10
151.4310699005446
 20
117.9936147879799
 30
0.0
 10
149.2041135174736
 20
117.5084407471093
 30
0.0
 10
146.7107328083324
 20
117.104765620318
 30
0.0
 10
144.0011826499591
 20
116.8190905579778
 30
0.0
 10
142.131496536941
 20
116.7815886368107
 30
0.0
 10
141.1807140607425
 20
116.7625179654176
 30
0.0
  0
SPLINE
  5
9A
330
1F
100
AcDbEntity
  8
0
  6
Continuous
 62
     7
370
    25
100
AcDbSpline
210
0.0
220
0.0
230
1.0
 70
     8
 71
     3
 72
    27
 73
    23
 74
     0
 42
0.00000001
 43
0.00000001
 40
0.0
 40
0.0
 40
0.0
 40
0.0
 40
0.0349712688734919
 40
0.0872207737365614
 40
0.1409744098648136
 40
0.1934522009238936
 40
0.2474199974340926
 40
0.300453382979798
 40
0.355020739745731
 40
0.4080830383659235
 40
0.4627162977139354
 40
0.5152174362392821
 40
0.5692588784876259
 40
0.6214888094731501
 40
0.6752100267263587
 40
0.72787618116806
 40
0.7820418283639085
 40
0.8351744065268677
 40
0.8898587999698915
 40
0.9427649217897286
 40
0.997238384342692
 40
1.0
 40
1.0
 40
1.0
 40
1.0
 10
84.20406183865335
 20
119.7347640496112
 30
0.0
 10
84.20299929037525
 20
119.734925382545
 30
0.0
 10
84.20034922116322
 20
119.7353277580885
 30
0.0
 10
84.41944127707501
 20
119.7011314639119
 30
0.0
 10
84.82277112328954
 20
119.6410623007642
 30
0.0
 10
85.41527041733433
 20
119.5593457688738
 30
0.0
 10
86.1629780831068
 20
119.4674193190367
 30
0.0
 10
87.06264176720266
 20
119.3734957731847
 30
0.0
 10
88.07467124334586
 20
119.2897625654673
 30
0.0
 10
89.1864264483424
 20
119.2247244179108
 30
0.0
 10
90.34227837957722
 20
119.187160103678
 30
0.0
 10
91.52890279353062
 20
119.1805373664602
 30
0.0
 10
92.6884480326233
 20
119.2052925546445
 30
0.0
 10
93.81313742459875
 20
119.258742113873
 30
0.0
 10
94.85487048048579
 20
119.3339961356951
 30
0.0
 10
95.805197155267
 20
119.4241244593624
 30
0.0
 10
96.62331979141184
 20
119.5181106437154
 30
0.0
 10
97.29553160322618
 20
119.6065158175481
 30
0.0
 10
97.7956213241247
 20
119.6789341494741
 30
0.0
 10
98.08893140916983
 20
119.7239268708608
 30
0.0
 10
98.20997536471303
 20
119.743005212238
 30
0.0
 10
98.17754410385622
 20
119.7379327079052
 30
0.0
 10
98.17597928241159
 20
119.7376879575209
 30
0.0
  0
LINE
  5
9B
330
1F
100
AcDbEntity
  8
0
  6
Continuous
 62
     7
370
    25
100
AcDbLine
 10
111.1807140607
 20
65.2384285714
 30
0.0
 11
171.1807140607
 21
65.2384285714
 31
0.0
  0
LINE
  5
9C
330
1F
100
AcDbEntity
  8
0
  6
Continuous
 62
     7
370
    25
100
AcDbLine
 10
111.1807140607
 20
30.7384285714
 30
0.0
 11
111.1807140607
 21
65.2384285714
 31
0.0
  0
LINE
  5
9D
330
1F
100
AcDbEntity
  8
0
  6
Continuous
 62
     7
370
    25
100
AcDbLine
 10
171.1807140607
 20
65.2384285714
 30
0.0
 11
171.1807140607
 21
30.7384285714
 31
0.0
  0
LINE
  5
9E
330
1F
100
AcDbEntity
  8
0
  6
Continuous
 62
     7
370
    25
100
AcDbLine
 10
81.1807140607
 20
66.2384285714
 30
0.0
 11
81.1807140607
 21
30.7384285714
 31
0.0
  0
LINE
  5
9F
330
1F
100
AcDbEntity
  8
0
  6
Continuous
 62
     7
370
    25
100
AcDbLine
 10
81.1807140607
 20
119.7384285714
 30
0.0
 11
81.1807140607
 21
84.2384285714
 31
0.0
  0
LINE
  5
A0
330
1F
100
AcDbEntity
  8
0
  6
Continuous
 62
     7
370
    25
100
AcDbLine
 10
201.1807140607
 20
66.2384285714
 30
0.0
 11
201.1807140607
 21
30.7384285714
 31
0.0
  0
LINE
  5
A1
330
1F
100
AcDbEntity
  8
0
  6
Continuous
 62
     7
370
    25
100
AcDbLine
 10
201.1807140607
 20
119.7384285714
 30
0.0
 11
201.1807140607
 21
84.2384285714
 31
0.0
  0
LINE
  5
A2
330
1F
100
AcDbEntity
  8
0
  6
Continuous
 62
     7
370
    25
100
AcDbLine
 10
81.1807140607
 20
77.2384285714
 30
0.0
 11
81.1807140607
 21
73.2384285714
 31
0.0
  0
LINE
  5
A3
330
1F
100
AcDbEntity
  8
0
  6
Continuous
 62
     7
370
    25
100
AcDbLine
 10
201.1807140607
 20
77.2384285714
 30
0.0
 11
201.1807140607
 21
73.2384285714
 31
0.0
  0
LINE
  5
A4
330
1F
100
AcDbEntity
  8
0
  6
Continuous
 62
     7
370
    25
100
AcDbLine
 10
141.1807140607
 20
167.7384285714
 30
0.0
 11
157.1807140607
 21
167.7384285714
 31
0.0
  0
LINE
  5
A5
330
1F
100
AcDbEntity
  8
0
  6
Continuous
 62
     7
370
    25
100
AcDbLine
 10
125.1807140607
 20
167.7384285714
 30
0.0
 11
141.1807140607
 21
167.7384285714
 31
0.0
  0
LINE
  5
A6
330
1F
100
AcDbEntity
  8
0
  6
Continuous
 62
     7
370
    25
100
AcDbLine
 10
98.1807140607
 20
134.7384285714
 30
0.0
 11
84.1807140607
 21
134.7384285714
 31
0.0
  0
LINE
  5
A7
330
1F
100
AcDbEntity
  8
0
  6
Continuous
 62
     7
370
    25
100
AcDbLine
 10
184.1807140607
 20
134.7384285714
 30
0.0
 11
198.1807140607
 21
134.7384285714
 31
0.0
  0
LINE
  5
A8
330
1F
100
AcDbEntity
  8
0
  6
Continuous
 62
     7
370
    25
100
AcDbLine
 10
315.2405190905
 20
119.1878533949
 30
0.0
 11
315.2405190905
 21
134.7384285714
 31
0.0
  0
LINE
  5
A9
330
1F
100
AcDbEntity
  8
0
  6
Continuous
 62
     7
370
    25
100
AcDbLine
 10
301.2405190905
 20
134.7384285714
 30
0.0
 11
301.2405190905
 21
119.1844181495
 31
0.0
  0
LINE
  5
AA
330
1F
100
AcDbEntity
  8
0
  6
Continuous
 62
     7
370
    25
100
AcDbLine
 10
292.2405190905
 20
167.7384285714
 30
0.0
 11
292.2405190905
 21
116.7649006095
 31
0.0
  0
LINE
  5
AB
330
1F
100
AcDbEntity
  8
0
  6
Continuous
 62
     7
370
    25
100
AcDbLine
 10
324.2405190905
 20
116.7625179654
 30
0.0
 11
324.2405190905
 21
167.7384285714
 31
0.0
  0
LINE
  5
AC
330
1F
100
AcDbEntity
  8
0
  6
Continuous
 62
     7
370
    25
100
AcDbLine
 10
351.8209045867
 20
84.2384285714
 30
0.0
 11
366.8209045867
 21
84.2384285714
 31
0.0
  0
LINE
  5
AD
330
1F
100
AcDbEntity
  8
0
  6
Continuous
 62
     7
370
    25
100
AcDbLine
 10
366.8209045867
 20
84.2384285714
 30
0.0
 11
366.8209045867
 21
77.2384285714
 31
0.0
  0
LINE
  5
AE
330
1F
100
AcDbEntity
  8
0
  6
Continuous
 62
     7
370
    25
100
AcDbLine
 10
366.8209045867
 20
77.2384285714
 30
0.0
 11
345.6871477772
 21
77.2384285714
 31
0.0
  0
ARC
  5
AF
330
1F
100
AcDbEntity
  8
0
  6
Continuous
 62
     7
370
    25
100
AcDbCircle
 10
308.2405190905
 20
75.2384285714
 30
0.0
 40
37.50000000000003
100
AcDbArc
 50
3.0572254285
 51
356.9427745715
  0
LINE
  5
B0
330
1F
100
AcDbEntity
  8
0
  6
Continuous
 62
     7
370
    25
100
AcDbLine
 10
345.6871477772
 20
73.2384285714
 30
0.0
 11
366.8209045867
 21
73.2384285714
 31
0.0
  0
LINE
  5
B1
330
1F
100
AcDbEntity
  8
0
  6
Continuous
 62
     7
370
    25
100
AcDbLine
 10
366.8209045867
 20
73.2384285714
 30
0.0
 11
366.8209045867
 21
66.2384285714
 31
0.0
  0
LINE
  5
B2
330
1F
100
AcDbEntity
  8
0
  6
Continuous
 62
     7
370
    25
100
AcDbLine
 10
366.8209045867
 20
66.2384285714
 30
0.0
 11
351.8209045867
 21
66.2384285714
 31
0.0
  0
ARC
  5
B3
330
1F
100
AcDbEntity
  8
0
  6
Continuous
 62
     7
370
    25
100
AcDbCircle
 10
308.2405190905
 20
75.2384285714
 30
0.0
 40
44.50000000000006
100
AcDbArc
 50
11.6683994965
 51
348.3316005035
  0
LINE
  5
B4
330
1F
100
AcDbEntity
  8
0
  6
Continuous
 62
     7
370
    25
100
AcDbLine
 10
315.2405190905
 20
134.7384285714
 30
0.0
 11
301.2405190905
 21
134.7384285714
 31
0.0
  0
LINE
  5
B5
330
1F
100
AcDbEntity
  8
0
  6
Continuous
 62
     7
370
    25
100
AcDbLine
 10
292.2405190905
 20
167.7384285714
 30
0.0
 11
324.2405190905
 21
167.7384285714
 31
0.0
  0
LINE
  5
B6
330
1F
100
AcDbEntity
  8
0
  6
Continuous
 62
     7
370
    25
100
AcDbLine
 10
81.1807140607
 20
225.180571375
 30
0.0
 11
201.1807140607
 21
225.180571375
 31
0.0
  0
LINE
  5
B7
330
1F
100
AcDbEntity
  8
0
  6
Continuous
 62
     7
370
    25
100
AcDbLine
 10
201.1807140607
 20
313.2609568712
 30
0.0
 11
81.1807140607
 21
313.2609568712
 31
0.0
  0
LINE
  5
B8
330
1F
100
AcDbEntity
  8
0
  6
Continuous
 62
     7
370
    25
100
AcDbLine
 10
201.1807140607
 20
313.2609568712
 30
0.0
 11
201.1807140607
 21
225.180571375
 31
0.0
  0
LINE
  5
B9
330
1F
100
AcDbEntity
  8
0
  6
Continuous
 62
     7
370
    25
100
AcDbLine
 10
81.1807140607
 20
313.2609568712
 30
0.0
 11
81.1807140607
 21
225.180571375
 31
0.0
  0
LINE
  5
BA
330
1F
100
AcDbEntity
  8
0
  6
Continuous
 62
     7
370
    25
100
AcDbLine
 10
111.1807140607
 20
313.0424209665
 30
0.0
 11
171.1807140607
 21
313.0424209665
 31
0.0
  0
LINE
  5
BB
330
1F
100
AcDbEntity
  8
0
  6
Continuous
 62
     7
370
    25
100
AcDbLine
 10
111.1807140607
 20
226.3187217834
 30
0.0
 11
111.1807140607
 21
313.0424209665
 31
0.0
  0
LINE
  5
BC
330
1F
100
AcDbEntity
  8
0
  6
Continuous
 62
     7
370
    25
100
AcDbLine
 10
171.1807140607
 20
226.3187217834
 30
0.0
 11
111.1807140607
 21
226.3187217834
 31
0.0
  0
LINE
  5
BD
330
1F
100
AcDbEntity
  8
0
  6
Continuous
 62
     7
370
    25
100
AcDbLine
 10
171.1807140607
 20
313.0424209665
 30
0.0
 11
171.1807140607
 21
226.3187217834
 31
0.0
  0
SPLINE
  5
BE
330
1F
100
AcDbEntity
  8
0
  6
Continuous
 62
     7
370
    25
100
AcDbSpline
210
0.0
220
0.0
230
1.0
 70
    11
 71
     3
 72
   103
 73
    99
 74
     0
 42
0.00000001
 43
0.00000001
 40
0.0
 40
0.0
 40
0.0
 40
0.0
 40
0.0312500000000001
 40
0.0312500000000001
 40
0.0468750000000001
 40
0.0468750000000001
 40
0.0625000000000002
 40
0.0625000000000002
 40
0.0937500000000003
 40
0.0937500000000003
 40
0.1093750000000004
 40
0.1093750000000004
 40
0.1250000000000004
 40
0.1250000000000004
 40
0.1562500000000006
 40
0.1562500000000006
 40
0.1875000000000007
 40
0.1875000000000007
 40
0.2031250000000008
 40
0.2031250000000008
 40
0.2187500000000009
 40
0.2187500000000009
 40
0.2500000000000011
 40
0.2500000000000011
 40
0.2656250000000012
 40
0.2656250000000012
 40
0.2812500000000012
 40
0.2812500000000012
 40
0.3125000000000013
 40
0.3125000000000013
 40
0.3281250000000013
 40
0.3281250000000013
 40
0.3437500000000014
 40
0.3437500000000014
 40
0.3593750000000014
 40
0.3593750000000014
 40
0.3750000000000014
 40
0.3750000000000014
 40
0.4062500000000016
 40
0.4062500000000016
 40
0.4218750000000016
 40
0.4218750000000016
 40
0.4375000000000016
 40
0.4375000000000016
 40
0.4687500000000016
 40
0.4687500000000016
 40
0.4843750000000016
 40
0.4843750000000016
 40
0.5000000000000016
 40
0.5156250000000016
 40
0.5156250000000016
 40
0.5312500000000017
 40
0.5312500000000017
 40
0.5625000000000017
 40
0.5625000000000017
 40
0.5781250000000016
 40
0.5781250000000016
 40
0.5937500000000014
 40
0.5937500000000014
 40
0.6250000000000013
 40
0.6250000000000013
 40
0.6406250000000012
 40
0.6406250000000012
 40
0.6562500000000012
 40
0.6562500000000012
 40
0.6718750000000011
 40
0.6718750000000011
 40
0.687500000000001
 40
0.687500000000001
 40
0.7187500000000009
 40
0.7187500000000009
 40
0.7343750000000009
 40
0.7343750000000009
 40
0.7500000000000008
 40
0.7500000000000008
 40
0.7812500000000007
 40
0.7812500000000007
 40
0.7968750000000006
 40
0.7968750000000006
 40
0.8125000000000004
 40
0.8125000000000004
 40
0.8281250000000004
 40
0.8281250000000004
 40
0.8437500000000003
 40
0.8437500000000003
 40
0.8750000000000002
 40
0.8750000000000002
 40
0.8906250000000002
 40
0.8906250000000002
 40
0.9062500000000003
 40
0.9062500000000003
 40
0.9375000000000002
 40
0.9375000000000002
 40
0.9531250000000002
 40
0.9531250000000002
 40
0.9687500000000001
 40
0.9687500000000001
 40
1.0
 40
1.0
 40
1.0
 40
1.0
 10
141.1807140607425
 20
256.6805713749574
 30
0.0
 10
142.0468719410755
 20
256.6805713749574
 30
0.0
 10
142.8970885708945
 20
256.7662567772579
 30
0.0
 10
144.1498498470662
 20
257.0170174334592
 30
0.0
 10
144.5636504855824
 20
257.1211343078423
 30
0.0
 10
145.3835998095038
 20
257.3712468735807
 30
0.0
 10
145.7890519443754
 20
257.5173413537364
 30
0.0
 10
146.9669693126606
 20
258.0082528154301
 30
0.0
 10
147.7107857641656
 20
258.4077800340492
 30
0.0
 10
148.7665992605864
 20
259.1148834654238
 30
0.0
 10
149.1100322152297
 20
259.3701218937792
 30
0.0
 10
149.7644552515722
 20
259.9082204772532
 30
0.0
 10
150.0764452057058
 20
260.1914880243403
 30
0.0
 10
150.9681891217008
 20
261.0833466085087
 30
0.0
 10
151.5042838577562
 20
261.7336626726092
 30
0.0
 10
152.4552587252483
 20
263.1526242332186
 30
0.0
 10
152.8545316726454
 20
263.8980132541865
 30
0.0
 10
153.3428528334628
 20
265.0695650328333
 30
0.0
 10
153.4870508930282
 20
265.4690570299138
 30
0.0
 10
153.7371664639421
 20
266.2867118677939
 30
0.0
 10
153.8433188810374
 20
266.706980806475
 30
0.0
 10
154.0959232308557
 20
267.9680939567367
 30
0.0
 10
154.1801404561932
 20
268.8162790959268
 30
0.0
 10
154.1809965251474
 20
270.0997107124915
 30
0.0
 10
154.1600712947142
 20
270.5308226717806
 30
0.0
 10
154.0749851301257
 20
271.3906634964731
 30
0.0
 10
154.0114439149818
 20
271.8146753886344
 30
0.0
 10
153.7601369878594
 20
273.0697059186664
 30
0.0
 10
153.5122806344413
 20
273.8838694662174
 30
0.0
 10
153.0180885271679
 20
275.0713392231409
 30
0.0
 10
152.8341593355728
 20
275.4578480904535
 30
0.0
 10
152.43301139461
 20
276.2047968256232
 30
0.0
 10
152.215235088012
 20
276.5665901305304
 30
0.0
 10
151.745655725722
 20
277.2673965488319
 30
0.0
 10
151.4938534522846
 20
277.6064094659267
 30
0.0
 10
150.9555110722496
 20
278.2615443347952
 30
0.0
 10
150.668192772596
 20
278.5781194600448
 30
0.0
 10
149.7712857775487
 20
279.4742700897267
 30
0.0
 10
149.1219728497594
 20
280.0077296849901
 30
0.0
 10
148.0693752863831
 20
280.7134673681683
 30
0.0
 10
147.703809028231
 20
280.9336353911244
 30
0.0
 10
146.9515394902147
 20
281.3373201313382
 30
0.0
 10
146.5679789019182
 20
281.5193493500294
 30
0.0
 10
145.3952769818243
 20
282.0075582343773
 30
0.0
 10
144.5843282483565
 20
282.2564582396668
 30
0.0
 10
143.3214006223627
 20
282.5102962760581
 30
0.0
 10
142.892116088773
 20
282.5745578238881
 30
0.0
 10
142.0389142725938
 20
282.6592951667193
 30
0.0
 10
141.1858233934586
 20
282.7015066976087
 30
0.0
 10
140.3329514117771
 20
282.6599728352027
 30
0.0
 10
139.4801901739798
 20
282.5759884789423
 30
0.0
 10
139.051346809421
 20
282.5121991864295
 30
0.0
 10
137.7865049974394
 20
282.2590789798829
 30
0.0
 10
136.9734610672724
 20
282.0102471347153
 30
0.0
 10
135.7967049898198
 20
281.5208803594045
 30
0.0
 10
135.4105935526921
 20
281.3376856558376
 30
0.0
 10
134.657516354645
 20
280.9335930012625
 30
0.0
 10
134.2942700899431
 20
280.7148361256585
 30
0.0
 10
133.2425079097428
 20
280.01001084234
 30
0.0
 10
132.5915842932497
 20
279.4758988636958
 30
0.0
 10
131.6903518327821
 20
278.5751440165023
 30
0.0
 10
131.4041158028092
 20
278.2594002510688
 30
0.0
 10
130.8681844303819
 20
277.6071034669611
 30
0.0
 10
130.6170818117942
 20
277.2691785503472
 30
0.0
 10
130.1481672677671
 20
276.5697074901906
 30
0.0
 10
129.9303547314063
 20
276.2081624949945
 30
0.0
 10
129.5286505152828
 20
275.4606618588631
 30
0.0
 10
129.3438447691692
 20
275.072356083248
 30
0.0
 10
128.8507833469623
 20
273.8881926101405
 30
0.0
 10
128.6030474529253
 20
273.0758798812504
 30
0.0
 10
128.3513906784092
 20
271.8229802619566
 30
0.0
 10
128.2876425455623
 20
271.3995706846555
 30
0.0
 10
128.2020219982238
 20
270.5406900113129
 30
0.0
 10
128.1806960919147
 20
270.108366196143
 30
0.0
 10
128.1807500327577
 20
268.8233446449628
 30
0.0
 10
128.2646429544867
 20
267.9742618353206
 30
0.0
 10
128.5169126953491
 20
266.7120311201203
 30
0.0
 10
128.6228991103121
 20
266.291717455345
 30
0.0
 10
128.8728912420282
 20
265.4733698489001
 30
0.0
 10
129.0171652385328
 20
265.0731931675981
 30
0.0
 10
129.3433155576759
 20
264.2902234663782
 30
0.0
 10
129.5251933893633
 20
263.9074315040276
 30
0.0
 10
129.9267766390188
 20
263.1591299240056
 30
0.0
 10
130.1477919555442
 20
262.7917722688472
 30
0.0
 10
130.8586547894358
 20
261.7320629856746
 30
0.0
 10
131.3940153706815
 20
261.0822819861926
 30
0.0
 10
132.2879350627827
 20
260.1886803826844
 30
0.0
 10
132.6011743670729
 20
259.9044318622412
 30
0.0
 10
133.2594743760531
 20
259.3638196097434
 30
0.0
 10
133.6003093726951
 20
259.1110128228237
 30
0.0
 10
134.6525345860858
 20
258.4069168817205
 30
0.0
 10
135.3953583838493
 20
258.0077251427459
 30
0.0
 10
136.5749096661849
 20
257.5163621632443
 30
0.0
 10
136.9813611515244
 20
257.3700703570227
 30
0.0
 10
137.7997617287998
 20
257.1206286403004
 30
0.0
 10
138.212934710887
 20
257.0167158879884
 30
0.0
 10
139.4642768807908
 20
256.7663294822122
 30
0.0
 10
140.3145561804095
 20
256.6805713749574
 30
0.0
 10
141.1807140607425
 20
256.6805713749574
 30
0.0
  0
LINE
  5
BF
330
1F
100
AcDbEntity
  8
0
  6
Continuous
 62
     7
370
    25
100
AcDbLine
 10
171.1807140607
 20
305.822652112
 30
0.0
 11
111.1807140607
 21
305.822652112
 31
0.0
  0
LINE
  5
C0
330
1F
100
AcDbEntity
  8
0
  6
Continuous
 62
     7
370
    25
100
AcDbLine
 10
111.1807140607
 20
233.538490638
 30
0.0
 11
171.1807140607
 21
233.538490638
 31
0.0
  0
LINE
  5
C1
330
1F
100
AcDbEntity
  8
0
  6
Continuous
 62
     7
370
    25
100
AcDbLine
 10
201.1807140607
 20
328.2609568712
 30
0.0
 11
81.1807140607
 21
328.2609568712
 31
0.0
  0
LINE
  5
C2
330
1F
100
AcDbEntity
  8
0
  6
Continuous
 62
     7
370
    25
100
AcDbLine
 10
81.1807140607
 20
328.2609568712
 30
0.0
 11
81.1807140607
 21
313.2609568712
 31
0.0
  0
LINE
  5
C3
330
1F
100
AcDbEntity
  8
0
  6
Continuous
 62
     7
370
    25
100
AcDbLine
 10
201.1807140607
 20
328.2609568712
 30
0.0
 11
201.1807140607
 21
313.2609568712
 31
0.0
  0
INSERT
  5
CF
330
1F
100
AcDbEntity
  8
FORMAT
100
AcDbBlockReference
  2
SW_CENTERMARKSYMBOL_0
 10
141.1807140607
 20
269.680571375
 30
0.0
  0
LINE
  5
D0
330
1F
100
AcDbEntity
  8
0
  6
Continuous
 62
     7
370
    25
100
AcDbLine
 10
-14.4807920924
 20
119.1844181495
 30
0.0
 11
-14.4807920924
 21
134.7384285714
 31
0.0
  0
LINE
  5
D1
330
1F
100
AcDbEntity
  8
0
  6
Continuous
 62
     7
370
    25
100
AcDbLine
 10
-28.4807920924
 20
134.7384285714
 30
0.0
 11
-28.4807920924
 21
119.1878533949
 31
0.0
  0
LINE
  5
D2
330
1F
100
AcDbEntity
  8
0
  6
Continuous
 62
     7
370
    25
100
AcDbLine
 10
-37.4807920924
 20
167.7384285714
 30
0.0
 11
-37.4807920924
 21
116.7625179654
 31
0.0
  0
LINE
  5
D3
330
1F
100
AcDbEntity
  8
0
  6
Continuous
 62
     7
370
    25
100
AcDbLine
 10
-5.4807920924
 20
116.7649006095
 30
0.0
 11
-5.4807920924
 21
167.7384285714
 31
0.0
  0
LINE
  5
D4
330
1F
100
AcDbEntity
  8
0
  6
Continuous
 62
     7
370
    25
100
AcDbLine
 10
-80.0611775886
 20
66.2384285714
 30
0.0
 11
-65.0611775886
 21
66.2384285714
 31
0.0
  0
LINE
  5
D5
330
1F
100
AcDbEntity
  8
0
  6
Continuous
 62
     7
370
    25
100
AcDbLine
 10
-80.0611775886
 20
73.2384285714
 30
0.0
 11
-80.0611775886
 21
66.2384285714
 31
0.0
  0
LINE
  5
D6
330
1F
100
AcDbEntity
  8
0
  6
Continuous
 62
     7
370
    25
100
AcDbLine
 10
-58.9274207791
 20
73.2384285714
 30
0.0
 11
-80.0611775886
 21
73.2384285714
 31
0.0
  0
ARC
  5
D7
330
1F
100
AcDbEntity
  8
0
  6
Continuous
 62
     7
370
    25
100
AcDbCircle
 10
-21.4807920924
 20
75.2384285714
 30
0.0
 40
37.5
100
AcDbArc
 50
183.0572254285
 51
176.9427745715
  0
LINE
  5
D8
330
1F
100
AcDbEntity
  8
0
  6
Continuous
 62
     7
370
    25
100
AcDbLine
 10
-80.0611775886
 20
77.2384285714
 30
0.0
 11
-58.9274207791
 21
77.2384285714
 31
0.0
  0
LINE
  5
D9
330
1F
100
AcDbEntity
  8
0
  6
Continuous
 62
     7
370
    25
100
AcDbLine
 10
-80.0611775886
 20
84.2384285714
 30
0.0
 11
-80.0611775886
 21
77.2384285714
 31
0.0
  0
LINE
  5
DA
330
1F
100
AcDbEntity
  8
0
  6
Continuous
 62
     7
370
    25
100
AcDbLine
 10
-65.0611775886
 20
84.2384285714
 30
0.0
 11
-80.0611775886
 21
84.2384285714
 31
0.0
  0
ARC
  5
DB
330
1F
100
AcDbEntity
  8
0
  6
Continuous
 62
     7
370
    25
100
AcDbCircle
 10
-21.4807920924
 20
75.2384285714
 30
0.0
 40
44.5
100
AcDbArc
 50
191.6683994965
 51
168.3316005035
  0
LINE
  5
DC
330
1F
100
AcDbEntity
  8
0
  6
Continuous
 62
     7
370
    25
100
AcDbLine
 10
-28.4807920924
 20
134.7384285714
 30
0.0
 11
-14.4807920924
 21
134.7384285714
 31
0.0
  0
LINE
  5
DD
330
1F
100
AcDbEntity
  8
0
  6
Continuous
 62
     7
370
    25
100
AcDbLine
 10
-37.4807920924
 20
167.7384285714
 30
0.0
 11
-5.4807920924
 21
167.7384285714
 31
0.0
  0
LINE
  5
DE
330
1F
100
AcDbEntity
  8
0
  6
Continuous
 62
     7
370
    25
100
AcDbLine
 10
201.1807140607
 20
-20.8161582126
 30
0.0
 11
81.1807140607
 21
-20.8161582126
 31
0.0
  0
CIRCLE
  5
DF
330
1F
100
AcDbEntity
  8
0
  6
Continuous
 62
     7
370
    25
100
AcDbCircle
 10
141.1807140607
 20
-65.3161582126
 30
0.0
 40
13.0
  0
CIRCLE
  5
E0
330
1F
100
AcDbEntity
  8
0
  6
Continuous
 62
     7
370
    25
100
AcDbCircle
 10
141.1807140607
 20
-65.3161582126
 30
0.0
 40
16.00000000000001
  0
CIRCLE
  5
E1
330
1F
100
AcDbEntity
  8
0
  6
Continuous
 62
     7
370
    25
100
AcDbCircle
 10
91.1807140607
 20
-65.3161582126
 30
0.0
 40
4.600000000000009
  0
CIRCLE
  5
E2
330
1F
100
AcDbEntity
  8
0
  6
Continuous
 62
     7
370
    25
100
AcDbCircle
 10
91.1807140607
 20
-65.3161582126
 30
0.0
 40
7.000000000000007
  0
CIRCLE
  5
E3
330
1F
100
AcDbEntity
  8
0
  6
Continuous
 62
     7
370
    25
100
AcDbCircle
 10
191.1807140607
 20
-65.3161582126
 30
0.0
 40
4.600000000000009
  0
CIRCLE
  5
E4
330
1F
100
AcDbEntity
  8
0
  6
Continuous
 62
     7
370
    25
100
AcDbCircle
 10
191.1807140607
 20
-65.3161582126
 30
0.0
 40
7.000000000000007
  0
CIRCLE
  5
E5
330
1F
100
AcDbEntity
  8
0
  6
Continuous
 62
     7
370
    25
100
AcDbCircle
 10
91.1807140607
 20
-65.3161582126
 30
0.0
 40
1.500000000000014
  0
CIRCLE
  5
E6
330
1F
100
AcDbEntity
  8
0
  6
Continuous
 62
     7
370
    25
100
AcDbCircle
 10
91.1807140607
 20
-65.3161582126
 30
0.0
 40
2.000000000000014
  0
CIRCLE
  5
E7
330
1F
100
AcDbEntity
  8
0
  6
Continuous
 62
     7
370
    25
100
AcDbCircle
 10
191.1807140607
 20
-65.3161582126
 30
0.0
 40
1.500000000000014
  0
CIRCLE
  5
E8
330
1F
100
AcDbEntity
  8
0
  6
Continuous
 62
     7
370
    25
100
AcDbCircle
 10
191.1807140607
 20
-65.3161582126
 30
0.0
 40
2.000000000000014
  0
LINE
  5
E9
330
1F
100
AcDbEntity
  8
0
  6
Continuous
 62
     7
370
    25
100
AcDbLine
 10
201.1807140607
 20
-20.8161582126
 30
0.0
 11
201.1807140607
 21
-108.8965437088
 31
0.0
  0
LINE
  5
EA
330
1F
100
AcDbEntity
  8
0
  6
Continuous
 62
     7
370
    25
100
AcDbLine
 10
201.1807140607
 20
-108.8965437088
 30
0.0
 11
81.1807140607
 21
-108.8965437088
 31
0.0
  0
LINE
  5
EB
330
1F
100
AcDbEntity
  8
0
  6
Continuous
 62
     7
370
    25
100
AcDbLine
 10
81.1807140607
 20
-20.8161582126
 30
0.0
 11
81.1807140607
 21
-108.8965437088
 31
0.0
  0
LINE
  5
EC
330
1F
100
AcDbEntity
  8
0
  6
Continuous
 62
     7
370
    25
100
AcDbLine
 10
201.1807140607
 20
-123.8965437088
 30
0.0
 11
81.1807140607
 21
-123.8965437088
 31
0.0
  0
LINE
  5
ED
330
1F
100
AcDbEntity
  8
0
  6
Continuous
 62
     7
370
    25
100
AcDbLine
 10
81.1807140607
 20
-108.8965437088
 30
0.0
 11
81.1807140607
 21
-123.8965437088
 31
0.0
  0
LINE
  5
EE
330
1F
100
AcDbEntity
  8
0
  6
Continuous
 62
     7
370
    25
100
AcDbLine
 10
201.1807140607
 20
-108.8965437088
 30
0.0
 11
201.1807140607
 21
-123.8965437088
 31
0.0
  0
INSERT
  5
FA
330
1F
100
AcDbEntity
  8
FORMAT
100
AcDbBlockReference
  2
SW_CENTERMARKSYMBOL_1
 10
141.1807140607
 20
-65.3161582126
 30
0.0
  0
INSERT
  5
106
330
1F
100
AcDbEntity
  8
FORMAT
100
AcDbBlockReference
  2
SW_CENTERMARKSYMBOL_2
 10
91.1807140607
 20
-65.3161582126
 30
0.0
  0
INSERT
  5
112
330
1F
100
AcDbEntity
  8
FORMAT
100
AcDbBlockReference
  2
SW_CENTERMARKSYMBOL_3
 10
191.1807140607
 20
-65.3161582126
 30
0.0
  0
LINE
  5
113
330
1F
100
AcDbEntity
  8
0
  6
Continuous
 62
     7
370
    25
100
AcDbLine
 10
382.7294028498
 20
-104.9560563976
 30
0.0
 11
403.9426062854
 21
-92.7099347202
 31
0.0
  0
LINE
  5
114
330
1F
100
AcDbEntity
  8
0
  6
Continuous
 62
     7
370
    25
100
AcDbLine
 10
319.089792543
 20
-141.6944214296
 30
0.0
 11
340.3029959786
 21
-129.4482997523
 31
0.0
  0
LINE
  5
115
330
1F
100
AcDbEntity
  8
0
  6
Continuous
 62
     7
370
    25
100
AcDbLine
 10
359.4462226831
 20
-15.6315859684
 30
0.0
 11
343.55579323
 21
-24.8049356314
 31
0.0
  0
LINE
  5
116
330
1F
100
AcDbEntity
  8
0
  6
Continuous
 62
     7
370
    25
100
AcDbLine
 10
381.6233466724
 20
-17.7937603162
 30
0.0
 11
381.6233466724
 21
-9.6686225962
 31
0.0
  0
LINE
  5
117
330
1F
100
AcDbEntity
  8
0
  6
Continuous
 62
     7
370
    25
100
AcDbLine
 10
367.6233466724
 20
-9.6686225962
 30
0.0
 11
367.6233466724
 21
-13.5471237561
 31
0.0
  0
LINE
  5
118
330
1F
100
AcDbEntity
  8
0
  6
Continuous
 62
     7
370
    25
100
AcDbLine
 10
323.2680076131
 20
-3.1329785995
 30
0.0
 11
323.2680076131
 21
-32.7252378725
 31
0.0
  0
LINE
  5
119
330
1F
100
AcDbEntity
  8
0
  6
Continuous
 62
     7
370
    25
100
AcDbLine
 10
355.2680076131
 20
-18.0436181867
 30
0.0
 11
355.2680076131
 21
-3.1329785995
 31
0.0
  0
LINE
  5
11A
330
1F
100
AcDbEntity
  8
0
  6
Continuous
 62
     7
370
    25
100
AcDbLine
 10
340.2718266553
 20
-37.6068766949
 30
0.0
 11
350.8784283731
 21
-43.7299375335
 31
0.0
  0
LINE
  5
11B
330
1F
100
AcDbEntity
  8
0
  6
Continuous
 62
     7
370
    25
100
AcDbLine
 10
340.2718266553
 20
-31.8910910117
 30
0.0
 11
340.2718266553
 21
-37.6068766949
 31
0.0
  0
LINE
  5
11C
330
1F
100
AcDbEntity
  8
0
  6
Continuous
 62
     7
370
    25
100
AcDbLine
 10
355.2156494073
 20
-40.5179762579
 30
0.0
 11
340.2718266553
 21
-31.8910910117
 31
0.0
  0
LWPOLYLINE
  5
11D
330
1F
100
AcDbEntity
  8
0
  6
Continuous
 62
     7
370
    25
100
AcDbPolyline
 90
      101
 70
   128
 43
0.0
 10
355.2156494073
 20
-37.2518130104
 10
355.3534328734
 20
-35.4471081354
 10
355.5916719687
 20
-33.7138089617
 10
355.9294581295
 20
-32.0585257083
 10
356.3655031534
 20
-30.4875710678
 10
356.8981441114
 20
-29.0069361321
 10
357.5253496903
 20
-27.622267544
 10
358.2447279396
 20
-26.3388459628
 10
359.0535353928
 20
-25.161565926
 10
359.9486875308
 20
-24.0949171832
 10
360.926770545
 20
-23.1429675733
 10
361.9840543562
 20
-22.3093475113
 10
363.1165068403
 20
-21.5972361433
 10
364.319809205
 20
-21.0093492221
 10
365.5893724605
 20
-20.5479287504
 10
366.9203549203
 20
-20.2147344305
 10
368.3076806657
 20
-20.0110369531
 10
369.7460589036
 20
-19.9376131518
 10
371.2300041442
 20
-19.9947430403
 10
372.7538571202
 20
-20.1822087445
 10
374.3118063698
 20
-20.4992953332
 10
375.8979103995
 20
-20.9447935451
 10
377.5061203428
 20
-21.5170044001
 10
379.1303030289
 20
-22.2137456787
 10
380.7642643722
 20
-23.0323602446
 10
382.4017729946
 20
-23.9697261775
 10
384.03658399
 20
-25.0222686795
 10
385.66246274
 20
-26.1859737082
 10
387.2732086908
 20
-27.4564032847
 10
388.8626790001
 20
-28.8287124186
 10
390.4248119637
 20
-30.2976675852
 10
391.9536501326
 20
-31.8576666844
 10
393.4433630333
 20
-33.5027604052
 10
394.8882694025
 20
-35.2266749144
 10
396.2828588543
 20
-37.022835783
 10
397.6218128944
 20
-38.8843930585
 10
398.900025203
 20
-40.8042473886
 10
400.1126211092
 20
-42.7750770958
 10
401.2549761806
 20
-44.7893660995
 10
402.32273386
 20
-46.8394325801
 10
403.3118220792
 20
-48.9174582748
 10
404.2184687891
 20
-51.0155182937
 10
405.0392163445
 20
-53.1256113428
 10
405.7709346908
 20
-55.239690238
 10
406.4108333008
 20
-57.3496925947
 10
406.9564718166
 20
-59.4475715748
 10
407.405769357
 20
-61.5253265748
 10
407.7570124523
 20
-63.5750337369
 10
408.0088615799
 20
-65.5888761688
 10
408.1603562719
 20
-67.5591737539
 10
408.2109187788
 20
-69.478412441
 10
408.1603562719
 20
-71.3392729003
 10
408.0088615799
 20
-73.134658437
 10
407.7570124523
 20
-74.8577220556
 10
407.405769357
 20
-76.501892572
 10
406.9564718166
 20
-78.0608996737
 10
406.4108333008
 20
-79.528797833
 10
405.7709346908
 20
-80.8999889807
 10
405.0392163445
 20
-82.1692438558
 10
404.2184687891
 20
-83.3317219479
 10
403.3118220792
 20
-84.3829899572
 10
402.32273386
 20
-85.3190387017
 10
401.2549761806
 20
-86.1362984067
 10
400.1126211092
 20
-86.8316523193
 10
398.900025203
 20
-87.4024485937
 10
397.6218128944
 20
-87.8465104054
 10
396.2828588543
 20
-88.1621442522
 10
394.8882694025
 20
-88.3481464129
 10
393.4433630333
 20
-88.4038075379
 10
391.9536501326
 20
-88.3289153546
 10
390.4248119637
 20
-88.1237554764
 10
388.8626790001
 20
-87.789110314
 10
387.2732086908
 20
-87.3262560913
 10
385.66246274
 20
-86.7369579784
 10
384.03658399
 20
-86.0234633596
 10
382.4017729946
 20
-85.1884932632
 10
380.7642643722
 20
-84.2352319838
 10
379.1303030289
 20
-83.1673149386
 10
377.5061203428
 20
-81.9888148036
 10
375.8979103995
 20
-80.7042259811
 10
374.3118063698
 20
-79.3184474602
 10
372.7538571202
 20
-77.8367641332
 10
371.2300041442
 20
-76.2648266412
 10
369.7460589036
 20
-74.6086298241
 10
368.3076806657
 20
-72.8744898586
 10
366.9203549203
 20
-71.0690201703
 10
365.5893724605
 20
-69.1991062123
 10
364.319809205
 20
-67.2718792064
 10
363.1165068403
 20
-65.2946889471
 10
361.9840543562
 20
-63.2750757719
 10
360.926770545
 20
-61.220741805
 10
359.9486875308
 20
-59.1395215841
 10
359.0535353928
 20
-57.0393521819
 10
358.2447279396
 20
-54.9282429368
 10
357.5253496903
 20
-52.8142449084
 10
356.8981441114
 20
-50.7054201728
 10
356.3655031534
 20
-48.6098110771
 10
355.9294581295
 20
-46.5354095683
 10
355.5916719687
 20
-44.490126715
 10
355.3534328734
 20
-42.4817625367
 10
355.2156494073
 20
-40.5179762579
  0
LINE
  5
11E
330
1F
100
AcDbEntity
  8
0
  6
Continuous
 62
     7
370
    25
100
AcDbLine
 10
340.2718266553
 20
-28.6249277641
 30
0.0
 11
355.2156494073
 21
-37.2518130104
 31
0.0
  0
LINE
  5
11F
330
1F
100
AcDbEntity
  8
0
  6
Continuous
 62
     7
370
    25
100
AcDbLine
 10
340.2718266553
 20
-22.9091420809
 30
0.0
 11
340.2718266553
 21
-28.6249277641
 31
0.0
  0
LINE
  5
120
330
1F
100
AcDbEntity
  8
0
  6
Continuous
 62
     7
370
    25
100
AcDbLine
 10
350.8784283731
 20
-29.0322029196
 30
0.0
 11
340.2718266553
 21
-22.9091420809
 31
0.0
  0
LWPOLYLINE
  5
121
330
1F
100
AcDbEntity
  8
0
  6
Continuous
 62
     7
370
    25
100
AcDbPolyline
 90
      104
 70
   128
 43
0.0
 10
350.8784283731
 20
-43.7299375335
 10
351.2914091149
 20
-45.985331219
 10
351.803306715
 20
-48.2673563814
 10
352.4124557032
 20
-50.5685884006
 10
353.1168741996
 20
-52.8815401669
 10
353.914270363
 20
-55.1986864399
 10
354.802049847
 20
-57.5124883323
 10
355.7773242412
 20
-59.815417838
 10
356.8369204685
 20
-62.0999823241
 10
357.977391109
 20
-64.3587489091
 10
359.1950256158
 20
-66.5843686453
 10
360.4858623878
 20
-68.769600429
 10
361.8457016587
 20
-70.9073345598
 10
363.2701191611
 20
-72.9906158718
 10
364.7544805206
 20
-75.0126663627
 10
366.2939563344
 20
-76.9669072458
 10
367.8835378834
 20
-78.8469803549
 10
369.5180534286
 20
-80.6467688298
 10
371.1921850369
 20
-82.3604170187
 10
372.9004858839
 20
-83.9823495286
 10
374.6373979743
 20
-85.5072893659
 10
376.3972702259
 20
-86.9302751047
 10
378.1743768549
 20
-88.2466770291
 10
379.9629360051
 20
-89.4522121959
 10
381.7571285593
 20
-90.5429583695
 10
383.5511170718
 20
-91.5153667827
 10
385.3390647609
 20
-92.3662736832
 10
387.1151544988
 20
-93.0929106261
 10
388.8736077377
 20
-93.6929134821
 10
390.6087033107
 20
-94.1643301282
 10
392.3147960454
 20
-94.5056268
 10
393.9863351311
 20
-94.7156930811
 10
395.6178821779
 20
-94.7938455161
 10
397.2041289109
 20
-94.7398298343
 10
398.7399144409
 20
-94.553821777
 10
400.2202420553
 20
-94.2364265255
 10
401.6402954751
 20
-93.7886767324
 10
402.9954545247
 20
-93.2120291616
 10
404.2813101638
 20
-92.508359949
 10
405.4936788322
 20
-91.6799584981
 10
406.6286160615
 20
-90.7295200315
 10
407.682429308
 20
-89.6601368221
 10
408.6516899665
 20
-88.475288132
 10
409.533244526
 20
-87.178828893
 10
410.3242248289
 20
-85.7749771642
 10
411.022057403
 20
-84.2683004087
 10
411.6244718346
 20
-82.663700633
 10
412.1295081547
 20
-80.9663984384
 10
412.5355232164
 20
-79.1819160356
 10
412.8411960407
 20
-77.3160592779
 10
413.045532114
 20
-75.3748987722
 10
413.1478666245
 20
-73.3647501275
 10
413.1478666245
 20
-71.2921534075
 10
413.045532114
 20
-69.163851852
 10
412.8411960407
 20
-66.9867699377
 10
412.5355232164
 20
-64.7679908494
 10
412.1295081547
 20
-62.5147334344
 10
411.6244718346
 20
-60.2343287163
 10
411.022057403
 20
-57.9341960427
 10
410.3242248289
 20
-55.6218189469
 10
409.533244526
 20
-53.3047207995
 10
408.6516899665
 20
-50.990440331
 10
407.682429308
 20
-48.686507105
 10
406.6286160615
 20
-46.4004170195
 10
405.4936788322
 20
-44.13960792
 10
404.2813101638
 20
-41.9114353994
 10
402.9954545247
 20
-39.7231488669
 10
401.6402954751
 20
-37.5818679617
 10
400.2202420553
 20
-35.4945593891
 10
398.7399144409
 20
-33.4680142543
 10
397.2041289109
 20
-31.5088259672
 10
395.6178821779
 20
-29.6233687908
 10
393.9863351311
 20
-27.8177771022
 10
392.3147960454
 20
-26.0979254344
 10
390.6087033107
 20
-24.4694093633
 10
388.8736077377
 20
-22.9375273023
 10
387.1151544988
 20
-21.507263264
 10
385.3390647609
 20
-20.1832706445
 10
383.5511170718
 20
-18.9698570834
 10
381.7571285592
 20
-17.8709704489
 10
379.9629360051
 20
-16.8901859932
 10
378.1743768549
 20
-16.0306947205
 10
376.3972702259
 20
-15.2952930049
 10
374.6373979743
 20
-14.6863734923
 10
372.9004858839
 20
-14.2059173161
 10
371.1921850369
 20
-13.855487651
 10
369.5180534286
 20
-13.636224628
 10
367.8835378834
 20
-13.5488416241
 10
366.2939563344
 20
-13.5936229419
 10
364.7544805206
 20
-13.7704228844
 10
363.2701191611
 20
-14.0786662289
 10
361.8457016587
 20
-14.517350099
 10
360.4858623878
 20
-15.0850472268
 10
359.1950256158
 20
-15.7799105969
 10
357.977391109
 20
-16.5996794559
 10
356.8369204685
 20
-17.5416866674
 10
355.7773242412
 20
-18.60286739
 10
354.802049847
 20
-19.7797690482
 10
353.914270363
 20
-21.0685625664
 10
353.1168741996
 20
-22.4650548258
 10
352.4124557032
 20
-23.9647023078
 10
351.803306715
 20
-25.5626258756
 10
351.2914091149
 20
-27.2536266491
 10
350.8784283731
 20
-29.0322029196
  0
LINE
  5
122
330
1F
100
AcDbEntity
  8
0
  6
Continuous
 62
     7
370
    25
100
AcDbLine
 10
350.8784283731
 20
-43.7299375335
 30
0.0
 11
266.0256146308
 21
-92.7144242429
 31
0.0
  0
LWPOLYLINE
  5
123
330
1F
100
AcDbEntity
  8
0
  6
Continuous
 62
     7
370
    25
100
AcDbPolyline
 90
       39
 70
   128
 43
0.0
 10
266.0256146308
 20
-92.7144242429
 10
266.4385953725
 20
-94.9698179284
 10
266.9504929726
 20
-97.2518430907
 10
267.5596419608
 20
-99.55307511
 10
268.2640604573
 20
-101.8660268763
 10
269.0614566206
 20
-104.1831731493
 10
269.9492361046
 20
-106.4969750417
 10
270.9245104988
 20
-108.7999045473
 10
271.9841067261
 20
-111.0844690335
 10
273.1245773666
 20
-113.3432356185
 10
274.3422118734
 20
-115.5688553546
 10
275.6330486454
 20
-117.7540871384
 10
276.9928879163
 20
-119.8918212692
 10
278.4173054187
 20
-121.9751025812
 10
279.9016667782
 20
-123.997153072
 10
281.441142592
 20
-125.9513939552
 10
283.030724141
 20
-127.8314670642
 10
284.6652396862
 20
-129.6312555392
 10
286.3393712945
 20
-131.344903728
 10
288.0476721415
 20
-132.9668362379
 10
289.7845842319
 20
-134.4917760753
 10
291.5444564835
 20
-135.9147618141
 10
293.3215631125
 20
-137.2311637384
 10
295.1101222627
 20
-138.4366989052
 10
296.9043148169
 20
-139.5274450788
 10
298.6983033294
 20
-140.4998534921
 10
300.4862510185
 20
-141.3507603926
 10
302.2623407564
 20
-142.0773973355
 10
304.0207939953
 20
-142.6774001914
 10
305.7558895683
 20
-143.1488168376
 10
307.4619823031
 20
-143.4901135094
 10
309.1335213887
 20
-143.7001797904
 10
310.7650684355
 20
-143.7783322254
 10
312.3513151685
 20
-143.7243165436
 10
313.8871006985
 20
-143.5383084863
 10
315.3674283129
 20
-143.2209132348
 10
316.7874817327
 20
-142.7731634417
 10
318.1426407823
 20
-142.196515871
 10
319.089792543
 20
-141.6944214296
  0
LINE
  5
124
330
1F
100
AcDbEntity
  8
0
  6
Continuous
 62
     7
370
    25
100
AcDbLine
 10
287.3933462865
 20
-81.3740506201
 30
0.0
 11
329.8197531577
 21
-56.8818072654
 31
0.0
  0
LWPOLYLINE
  5
125
330
1F
100
AcDbEntity
  8
0
  6
Continuous
 62
     7
370
    25
100
AcDbPolyline
 90
       48
 70
   128
 43
0.0
 10
348.7162620684
 20
-116.7750163703
 10
348.2618934036
 20
-118.5234340506
 10
347.7087275072
 20
-120.1815346126
 10
347.0585735987
 20
-121.743894967
 10
346.313558113
 20
-123.2054051582
 10
345.4761177453
 20
-124.561285078
 10
344.5489914813
 20
-125.8071000989
 10
343.5352116394
 20
-126.9387755791
 10
342.4380939525
 20
-127.9526101885
 10
341.2612267236
 20
-128.845288015
 10
340.0084590899
 20
-129.6138894096
 10
338.6838884328
 20
-130.2559005356
 10
337.2918469778
 20
-130.7692215905
 10
335.8368876242
 20
-131.1521736737
 10
334.3237690549
 20
-131.4035042777
 10
332.757440172
 20
-131.5223913847
 10
331.1430239105
 20
-131.5084461548
 10
329.4858004833
 20
-131.3617141982
 10
327.7911901108
 20
-131.0826754259
 10
326.0647352938
 20
-130.6722424798
 10
324.3120826854
 20
-130.1317577481
 10
322.5389646231
 20
-129.4629889745
 10
320.7511803798
 20
-128.6681234769
 10
318.9545771966
 20
-127.7497609931
 10
317.1550311584
 20
-126.7109051779
 10
315.3584279751
 20
-125.5549537794
 10
313.5706437318
 20
-124.2856875259
 10
311.7975256695
 20
-122.9072577606
 10
310.0448730612
 20
-121.4241728636
 10
308.3184182442
 20
-119.8412835071
 10
306.6238078717
 20
-118.1637667898
 10
304.9665844444
 20
-116.3971093048
 10
303.3521681829
 20
-114.5470891948
 10
301.7858393
 20
-112.6197572535
 10
300.2727207307
 20
-110.6214171356
 10
298.8177613772
 20
-108.5586047396
 10
297.4257199221
 20
-106.4380668312
 10
296.1011492651
 20
-104.266738977
 10
294.8483816313
 20
-102.0517228602
 10
293.6715144025
 20
-99.8002630538
 10
292.5743967156
 20
-97.5197233257
 10
291.5606168737
 20
-95.2175625546
 10
290.6334906097
 20
-92.9013103341
 10
289.7960502419
 20
-90.5785423465
 10
289.0510347562
 20
-88.2568555849
 10
288.4008808477
 20
-85.9438435059
 10
287.8477149513
 20
-83.6470711943
 10
287.3933462865
 20
-81.3740506201
  0
LINE
  5
126
330
1F
100
AcDbEntity
  8
0
  6
Continuous
 62
     7
370
    25
100
AcDbLine
 10
367.5472954179
 20
-105.9040922117
 30
0.0
 11
348.7162620684
 21
-116.7750163703
 31
0.0
  0
LWPOLYLINE
  5
127
330
1F
100
AcDbEntity
  8
0
  6
Continuous
 62
     7
370
    25
100
AcDbPolyline
 90
       39
 70
   128
 43
0.0
 10
329.8197531577
 20
-56.8818072654
 10
330.2741218225
 20
-59.1548278396
 10
330.8272877189
 20
-61.4516001512
 10
331.4774416274
 20
-63.7646122302
 10
332.2224571131
 20
-66.0862989918
 10
333.0598974809
 20
-68.4090669794
 10
333.9870237448
 20
-70.7253191999
 10
335.0008035868
 20
-73.027479971
 10
336.0979212737
 20
-75.3080196991
 10
337.2747885025
 20
-77.5594795056
 10
338.5275561363
 20
-79.7744956223
 10
339.8521267933
 20
-81.9458234765
 10
341.2441682484
 20
-84.0663613849
 10
342.6991276019
 20
-86.1291737809
 10
344.2122461712
 20
-88.1275138988
 10
345.7785750541
 20
-90.0548458402
 10
347.3929913156
 20
-91.9048659502
 10
349.0502147429
 20
-93.6715234351
 10
350.7448251154
 20
-95.3490401524
 10
352.4712799324
 20
-96.9319295089
 10
354.2239325407
 20
-98.4150144059
 10
355.997050603
 20
-99.7934441712
 10
357.7848348463
 20
-101.0627104247
 10
359.5814380296
 20
-102.2186618232
 10
361.3809840678
 20
-103.2575176384
 10
363.177587251
 20
-104.1758801223
 10
364.9653714943
 20
-104.9707456198
 10
366.7384895566
 20
-105.6395143934
 10
368.491142165
 20
-106.1799991251
 10
370.217596982
 20
-106.5904320712
 10
371.9122073545
 20
-106.8694708436
 10
373.5694307817
 20
-107.0162028001
 10
375.1838470432
 20
-107.03014803
 10
376.7501759261
 20
-106.9112609231
 10
378.2632944954
 20
-106.659930319
 10
379.718253849
 20
-106.2769782358
 10
381.110295304
 20
-105.7636571809
 10
382.4348659611
 20
-105.1216460549
 10
382.7294028498
 20
-104.9560563976
  0
LINE
  5
128
330
1F
100
AcDbEntity
  8
0
  6
Continuous
 62
     7
370
    25
100
AcDbLine
 10
355.2156494073
 20
-37.2518130104
 30
0.0
 11
352.3867625462
 21
-38.8848946342
 31
0.0
  0
LWPOLYLINE
  5
129
330
1F
100
AcDbEntity
  8
0
  6
Continuous
 62
     7
370
    25
100
AcDbPolyline
 90
       26
 70
   128
 43
0.0
 10
303.9168220795
 20
-77.7295289422
 10
304.0098652578
 20
-77.8131991279
 10
305.5719982213
 20
-79.2821542945
 10
307.1008363902
 20
-80.8421533937
 10
308.5905492909
 20
-82.4872471145
 10
310.0354556602
 20
-84.2111616238
 10
311.430045112
 20
-86.0073224924
 10
312.768999152
 20
-87.8688797679
 10
314.0472114606
 20
-89.788734098
 10
315.2598073668
 20
-91.7595638051
 10
316.4021624383
 20
-93.7738528088
 10
317.4699201176
 20
-95.8239192895
 10
318.4590083369
 20
-97.9019449842
 10
319.3656550467
 20
-100.0000050031
 10
320.1864026021
 20
-102.1100980521
 10
320.9181209484
 20
-104.2241769473
 10
321.5580195584
 20
-106.334179304
 10
322.1036580742
 20
-108.4320582842
 10
322.5529556146
 20
-110.5098132841
 10
322.90419871
 20
-112.5595204463
 10
323.1560478375
 20
-114.5733628782
 10
323.3075425296
 20
-116.5436604633
 10
323.3581050364
 20
-118.4628991503
 10
323.3075425296
 20
-120.3237596097
 10
323.1560478375
 20
-122.1191451464
 10
322.909183156
 20
-123.8142922128
  0
LINE
  5
12A
330
1F
100
AcDbEntity
  8
0
  6
Continuous
 62
     7
370
    25
100
AcDbLine
 10
330.9989388795
 20
-62.0953556963
 30
0.0
 11
292.4984938021
 21
-84.3211895493
 31
0.0
  0
LINE
  5
12B
330
1F
100
AcDbEntity
  8
0
  6
Continuous
 62
     7
370
    25
100
AcDbLine
 10
343.6111145528
 20
-113.8278774411
 30
0.0
 11
361.6604815489
 21
-103.4081996633
 31
0.0
  0
LWPOLYLINE
  5
12C
330
1F
100
AcDbEntity
  8
0
  6
Continuous
 62
     7
370
    25
100
AcDbPolyline
 90
       43
 70
   128
 43
0.0
 10
292.4984938021
 20
-84.3211895493
 10
292.9852550933
 20
-86.413475312
 10
293.5681848152
 20
-88.5230066827
 10
294.2450468114
 20
-90.6416913608
 10
295.013244595
 20
-92.7614019332
 10
295.8698313089
 20
-94.8740070516
 10
296.8115210305
 20
-96.9714026244
 10
297.8347013764
 20
-99.045542905
 10
298.9354473598
 20
-101.0884713555
 10
300.1095364471
 20
-103.0923511687
 10
301.3524647557
 20
-105.0494953305
 10
302.6594643314
 20
-106.9523961079
 10
304.0255214381
 20
-108.7937538488
 10
305.4453957915
 20
-110.5665049846
 10
306.9136406606
 20
-112.2638491259
 10
308.4246237621
 20
-113.8792751494
 10
309.9725488658
 20
-115.4065861752
 10
311.5514780297
 20
-116.8399233384
 10
313.1553543783
 20
-118.1737882637
 10
314.778025337
 20
-119.4030641579
 10
316.4132662338
 20
-120.5230354384
 10
318.0548041775
 20
-121.529405822
 10
319.6963421212
 20
-122.4183148061
 10
321.3315830179
 20
-123.1863524776
 10
322.9542539766
 20
-123.8305725937
 10
324.5581303252
 20
-124.3485038839
 10
326.1370594892
 20
-124.73815953
 10
327.6849845929
 20
-124.9980447873
 10
329.1959676943
 20
-125.1271627191
 10
330.6642125634
 20
-125.1250180204
 10
332.0840869168
 20
-124.9916189184
 10
333.4501440235
 20
-124.7274771409
 10
334.7571435992
 20
-124.333605953
 10
336.0000719078
 20
-123.8115162704
 10
337.1741609951
 20
-123.1632108632
 10
338.2749069786
 20
-122.3911766734
 10
339.2980873244
 20
-121.4983752746
 10
340.239777046
 20
-120.4882315116
 10
341.09636376
 20
-119.3646203617
 10
341.8645615435
 20
-118.131852071
 10
342.5414235397
 20
-116.7946556193
 10
343.1243532616
 20
-115.3581605797
 10
343.6111145528
 20
-113.8278774411
  0
LINE
  5
12D
330
1F
100
AcDbEntity
  8
0
  6
Continuous
 62
     7
370
    25
100
AcDbLine
 10
340.2718266553
 20
-31.8910910117
 30
0.0
 11
255.419012913
 21
-80.875577721
 31
0.0
  0
LINE
  5
12E
330
1F
100
AcDbEntity
  8
0
  6
Continuous
 62
     7
370
    25
100
AcDbLine
 10
340.2718266553
 20
-37.6068766949
 30
0.0
 11
255.419012913
 21
-86.5913634042
 31
0.0
  0
LINE
  5
12F
330
1F
100
AcDbEntity
  8
0
  6
Continuous
 62
     7
370
    25
100
AcDbLine
 10
255.419012913
 20
-80.875577721
 30
0.0
 11
255.419012913
 21
-86.5913634042
 31
0.0
  0
LINE
  5
130
330
1F
100
AcDbEntity
  8
0
  6
Continuous
 62
     7
370
    25
100
AcDbLine
 10
255.419012913
 20
-86.5913634042
 30
0.0
 11
266.0256146308
 21
-92.7144242429
 31
0.0
  0
LINE
  5
131
330
1F
100
AcDbEntity
  8
0
  6
Continuous
 62
     7
370
    25
100
AcDbLine
 10
340.2718266553
 20
-22.9091420809
 30
0.0
 11
255.419012913
 21
-71.8936287903
 31
0.0
  0
LINE
  5
132
330
1F
100
AcDbEntity
  8
0
  6
Continuous
 62
     7
370
    25
100
AcDbLine
 10
340.2718266553
 20
-28.6249277641
 30
0.0
 11
255.419012913
 21
-77.6094144735
 31
0.0
  0
LINE
  5
133
330
1F
100
AcDbEntity
  8
0
  6
Continuous
 62
     7
370
    25
100
AcDbLine
 10
255.419012913
 20
-71.8936287903
 30
0.0
 11
255.419012913
 21
-77.6094144735
 31
0.0
  0
LINE
  5
134
330
1F
100
AcDbEntity
  8
0
  6
Continuous
 62
     7
370
    25
100
AcDbLine
 10
255.419012913
 20
-77.6094144735
 30
0.0
 11
258.247899774
 21
-79.2424960972
 31
0.0
  0
LINE
  5
135
330
1F
100
AcDbEntity
  8
0
  6
Continuous
 62
     7
370
    25
100
AcDbLine
 10
292.4984938021
 20
-84.3211895493
 30
0.0
 11
287.3933462865
 21
-81.3740506201
 31
0.0
  0
LINE
  5
136
330
1F
100
AcDbEntity
  8
0
  6
Continuous
 62
     7
370
    25
100
AcDbLine
 10
348.7162620684
 20
-116.7750163703
 30
0.0
 11
343.6111145528
 21
-113.8278774411
 31
0.0
  0
LWPOLYLINE
  5
137
330
1F
100
AcDbEntity
  8
0
  6
Continuous
 62
     7
370
    25
100
AcDbPolyline
 90
       23
 70
   128
 43
0.0
 10
367.6233466724
 20
-9.6686225962
 10
367.6804833886
 20
-9.1533631812
 10
367.884427569
 20
-8.5752803123
 10
368.2320001104
 20
-8.0205001359
 10
368.7157931075
 20
-7.5008468284
 10
369.3254953523
 20
-7.0273958978
 10
370.0481121002
 20
-6.6102381287
 10
370.8682420297
 20
-6.2582645147
 10
371.7684054952
 20
-5.9789767623
 10
372.7294170753
 20
-5.7783274051
 10
373.7307944767
 20
-5.6605929358
 10
374.7511950784
 20
-5.6282826601
 10
375.7688708134
 20
-5.6820852155
 10
376.7621316901
 20
-5.820853894
 10
377.7098080774
 20
-6.041631082
 10
378.5917018984
 20
-6.3397112972
 10
379.3890171174
 20
-6.7087414772
 10
380.0847603449
 20
-7.1408563845
 10
380.6641030217
 20
-7.62684624
 10
381.1146974646
 20
-8.1563530137
 10
381.4269400353
 20
-8.718091188
 10
381.5941758255
 20
-9.3000882891
 10
381.6233466724
 20
-9.6686225962
  0
LWPOLYLINE
  5
138
330
1F
100
AcDbEntity
  8
0
  6
Continuous
 62
     7
370
    25
100
AcDbPolyline
 90
       26
 70
   128
 43
0.0
 10
327.9542991141
 20
3.398286295
 10
329.0809648272
 20
3.9895484205
 10
330.2998859772
 20
4.5163078384
 10
331.6000238255
 20
4.9737941338
 10
332.9696041225
 20
5.3578642399
 10
334.3962237367
 20
5.6650399584
 10
335.8669629802
 20
5.8925394585
 10
337.3685026105
 20
6.0383024694
 10
338.8872444523
 20
6.1010089387
 10
340.4094345443
 20
6.080090987
 10
341.9212876971
 20
5.9757380504
 10
343.4091123347
 20
5.7888951653
 10
344.8594344866
 20
5.5212544098
 10
346.259119811
 20
5.17523958
 10
347.5954925406
 20
4.7539842399
 10
348.8564502772
 20
4.2613033429
 10
350.0305735923
 20
3.7016586836
 10
351.1072294432
 20
3.0801184908
 10
352.0766674679
 20
2.4023115285
 10
352.9301082854
 20
1.6743761217
 10
353.6598230036
 20
0.9029045661
 10
354.2592032131
 20
0.0948834276
 10
354.7228208337
 20
-0.7423697293
 10
355.0464772726
 20
-1.6012726103
 10
355.2272414468
 20
-2.4740468579
 10
355.2680076131
 20
-3.1329785995
  0
ARC
  5
139
330
1F
100
AcDbEntity
  8
0
  6
Continuous
 62
     7
370
    25
100
AcDbCircle
 10
331.2309320347
 20
-3.8996310847
 30
0.0
 40
7.999745082026433
100
AcDbArc
 50
114.1792179231
 51
174.5006411193
  0
ENDSEC
  0
SECTION
  2
OBJECTS
  0
DICTIONARY
  5
C
330
0
100
AcDbDictionary
281
     1
  3
ACAD_GROUP
350
D
  3
ACAD_LAYOUT
350
1A
  3
ACAD_MLINESTYLE
350
17
  3
ACAD_PLOTSETTINGS
350
19
  3
ACAD_PLOTSTYLENAME
350
E
  3
ACAD_SCALELIST
350
47
  3
DWGPROPS
350
13A
  0
DICTIONARY
  5
D
102
{ACAD_REACTORS
330
C
102
}
330
C
100
AcDbDictionary
281
     1
  0
DICTIONARY
  5
1A
102
{ACAD_REACTORS
330
C
102
}
330
C
100
AcDbDictionary
281
     1
  3
Layout1
350
1E
  3
Layout2
350
26
  3
Model
350
22
  0
DICTIONARY
  5
17
102
{ACAD_REACTORS
330
C
102
}
330
C
100
AcDbDictionary
281
     1
  3
Standard
350
18
  0
DICTIONARY
  5
19
102
{ACAD_REACTORS
330
C
102
}
330
C
100
AcDbDictionary
281
     1
  0
ACDBDICTIONARYWDFLT
  5
E
102
{ACAD_REACTORS
330
C
102
}
330
C
100
AcDbDictionary
281
     1
  3
Normal
350
F
100
AcDbDictionaryWithDefault
340
F
  0
DICTIONARY
  5
47
102
{ACAD_REACTORS
330
C
102
}
330
C
100
AcDbDictionary
281
     1
  3
A0
350
48
  3
A1
350
49
  3
A2
350
4A
  3
A3
350
4B
  3
A4
350
4C
  3
A5
350
4D
  3
A6
350
4E
  3
A7
350
4F
  3
A8
350
50
  3
A9
350
51
  3
B0
350
52
  3
B1
350
53
  3
B2
350
54
  3
B3
350
55
  3
B4
350
56
  3
B5
350
57
  3
B6
350
58
  3
B7
350
59
  3
B8
350
5A
  3
B9
350
5B
  3
C0
350
5C
  3
C1
350
5D
  3
C2
350
5E
  3
C3
350
5F
  3
C4
350
60
  3
C5
350
61
  3
C6
350
62
  3
C7
350
63
  3
C8
350
64
  3
C9
350
65
  3
D0
350
66
  3
D1
350
67
  3
D2
350
68
  0
XRECORD
  5
13A
102
{ACAD_REACTORS
330
C
102
}
330
C
100
AcDbXrecord
280
     1
  1
DWGPROPS COOKIE
  2

  3

  4

  6

  7

  8
b.kav
  9

300
=
301
=
302
=
303
=
304
=
305
=
306
=
307
=
308
=
309
=
 40
0.0
 41
2459741.48942669
 42
2459741.489426875
  1

 90
        0
  0
LAYOUT
  5
1E
102
{ACAD_REACTORS
330
1A
102
}
330
1A
100
AcDbPlotSettings
  1

  2
none_device
  4

  6

 40
0.0
 41
0.0
 42
0.0
 43
0.0
 44
0.0
 45
0.0
 46
0.0
 47
0.0
 48
0.0
 49
0.0
140
0.0
141
0.0
142
1.0
143
1.0
 70
   688
 72
     1
 73
     0
 74
     5
  7

 75
    16
147
1.0
148
0.0
149
0.0
100
AcDbLayout
  1
Layout1
 70
     1
 71
     1
 10
0.0
 20
0.0
 11
420.0
 21
297.0
 12
0.0
 22
0.0
 32
0.0
 14
1.0000000000E+20
 24
1.0000000000E+20
 34
1.0000000000E+20
 15
-1.0000000000E+20
 25
-1.0000000000E+20
 35
-1.0000000000E+20
146
0.0
 13
0.0
 23
0.0
 33
0.0
 16
1.0
 26
0.0
 36
0.0
 17
0.0
 27
1.0
 37
0.0
 76
     0
330
1B
  0
LAYOUT
  5
26
102
{ACAD_REACTORS
330
1A
102
}
330
1A
100
AcDbPlotSettings
  1

  2
none_device
  4

  6

 40
0.0
 41
0.0
 42
0.0
 43
0.0
 44
0.0
 45
0.0
 46
0.0
 47
0.0
 48
0.0
 49
0.0
140
0.0
141
0.0
142
1.0
143
1.0
 70
   688
 72
     1
 73
     0
 74
     5
  7

 75
    16
147
1.0
148
0.0
149
0.0
100
AcDbLayout
  1
Layout2
 70
     1
 71
     2
 10
0.0
 20
0.0
 11
0.0
 21
0.0
 12
0.0
 22
0.0
 32
0.0
 14
0.0
 24
0.0
 34
0.0
 15
0.0
 25
0.0
 35
0.0
146
0.0
 13
0.0
 23
0.0
 33
0.0
 16
1.0
 26
0.0
 36
0.0
 17
0.0
 27
1.0
 37
0.0
 76
     0
330
23
  0
LAYOUT
  5
22
102
{ACAD_REACTORS
330
1A
102
}
330
1A
100
AcDbPlotSettings
  1

  2
none_device
  4
Letter_(8.50_x_11.00_Inches)
  6

 40
6.35
 41
6.35
 42
6.35000508
 43
6.35000508
 44
215.9
 45
279.4
 46
0.0
 47
0.0
 48
0.0
 49
0.0
140
0.0
141
0.0
142
1.0
143
1.0
 70
  1712
 72
     1
 73
     0
 74
     0
  7

 75
     0
147
1.0
148
0.0
149
0.0
100
AcDbLayout
  1
Model
 70
     1
 71
     0
 10
0.0
 20
0.0
 11
279.4
 21
215.9
 12
0.0
 22
0.0
 32
0.0
 14
0.0
 24
0.0
 34
0.0
 15
279.4
 25
215.9
 35
0.0
146
0.0
 13
0.0
 23
0.0
 33
0.0
 16
1.0
 26
0.0
 36
0.0
 17
0.0
 27
1.0
 37
0.0
 76
     0
330
1F
331
29
  0
MLINESTYLE
  5
18
102
{ACAD_REACTORS
330
17
102
}
330
17
100
AcDbMlineStyle
  2
Standard
 70
     0
  3

 62
   256
 51
90.0
 52
90.0
 71
     2
 49
0.5
 62
   256
  6
BYLAYER
 49
-0.5
 62
   256
  6
BYLAYER
  0
ACDBPLACEHOLDER
  5
F
102
{ACAD_REACTORS
330
E
102
}
330
E
  0
SCALE
  5
48
102
{ACAD_REACTORS
330
47
102
}
330
47
100
AcDbScale
 70
     0
300
1:1
140
1.0
141
1.0
290
     1
  0
SCALE
  5
49
102
{ACAD_REACTORS
330
47
102
}
330
47
100
AcDbScale
 70
     0
300
1:2
140
1.0
141
2.0
290
     0
  0
SCALE
  5
4A
102
{ACAD_REACTORS
330
47
102
}
330
47
100
AcDbScale
 70
     0
300
1:4
140
1.0
141
4.0
290
     0
  0
SCALE
  5
4B
102
{ACAD_REACTORS
330
47
102
}
330
47
100
AcDbScale
 70
     0
300
1:5
140
1.0
141
5.0
290
     0
  0
SCALE
  5
4C
102
{ACAD_REACTORS
330
47
102
}
330
47
100
AcDbScale
 70
     0
300
1:8
140
1.0
141
8.0
290
     0
  0
SCALE
  5
4D
102
{ACAD_REACTORS
330
47
102
}
330
47
100
AcDbScale
 70
     0
300
1:10
140
1.0
141
10.0
290
     0
  0
SCALE
  5
4E
102
{ACAD_REACTORS
330
47
102
}
330
47
100
AcDbScale
 70
     0
300
1:16
140
1.0
141
16.0
290
     0
  0
SCALE
  5
4F
102
{ACAD_REACTORS
330
47
102
}
330
47
100
AcDbScale
 70
     0
300
1:20
140
1.0
141
20.0
290
     0
  0
SCALE
  5
50
102
{ACAD_REACTORS
330
47
102
}
330
47
100
AcDbScale
 70
     0
300
1:30
140
1.0
141
30.0
290
     0
  0
SCALE
  5
51
102
{ACAD_REACTORS
330
47
102
}
330
47
100
AcDbScale
 70
     0
300
1:40
140
1.0
141
40.0
290
     0
  0
SCALE
  5
52
102
{ACAD_REACTORS
330
47
102
}
330
47
100
AcDbScale
 70
     0
300
1:50
140
1.0
141
50.0
290
     0
  0
SCALE
  5
53
102
{ACAD_REACTORS
330
47
102
}
330
47
100
AcDbScale
 70
     0
300
1:100
140
1.0
141
100.0
290
     0
  0
SCALE
  5
54
102
{ACAD_REACTORS
330
47
102
}
330
47
100
AcDbScale
 70
     0
300
2:1
140
2.0
141
1.0
290
     0
  0
SCALE
  5
55
102
{ACAD_REACTORS
330
47
102
}
330
47
100
AcDbScale
 70
     0
300
4:1
140
4.0
141
1.0
290
     0
  0
SCALE
  5
56
102
{ACAD_REACTORS
330
47
102
}
330
47
100
AcDbScale
 70
     0
300
8:1
140
8.0
141
1.0
290
     0
  0
SCALE
  5
57
102
{ACAD_REACTORS
330
47
102
}
330
47
100
AcDbScale
 70
     0
300
10:1
140
10.0
141
1.0
290
     0
  0
SCALE
  5
58
102
{ACAD_REACTORS
330
47
102
}
330
47
100
AcDbScale
 70
     0
300
100:1
140
100.0
141
1.0
290
     0
  0
SCALE
  5
59
102
{ACAD_REACTORS
330
47
102
}
330
47
100
AcDbScale
 70
     0
300
1/128" = 1'-0"
140
0.0078125
141
12.0
290
     0
  0
SCALE
  5
5A
102
{ACAD_REACTORS
330
47
102
}
330
47
100
AcDbScale
 70
     0
300
1/64" = 1'-0"
140
0.015625
141
12.0
290
     0
  0
SCALE
  5
5B
102
{ACAD_REACTORS
330
47
102
}
330
47
100
AcDbScale
 70
     0
300
1/32" = 1'-0"
140
0.03125
141
12.0
290
     0
  0
SCALE
  5
5C
102
{ACAD_REACTORS
330
47
102
}
330
47
100
AcDbScale
 70
     0
300
1/16" = 1'-0"
140
0.0625
141
12.0
290
     0
  0
SCALE
  5
5D
102
{ACAD_REACTORS
330
47
102
}
330
47
100
AcDbScale
 70
     0
300
3/32" = 1'-0"
140
0.09375
141
12.0
290
     0
  0
SCALE
  5
5E
102
{ACAD_REACTORS
330
47
102
}
330
47
100
AcDbScale
 70
     0
300
1/8" = 1'-0"
140
0.125
141
12.0
290
     0
  0
SCALE
  5
5F
102
{ACAD_REACTORS
330
47
102
}
330
47
100
AcDbScale
 70
     0
300
3/16" = 1'-0"
140
0.1875
141
12.0
290
     0
  0
SCALE
  5
60
102
{ACAD_REACTORS
330
47
102
}
330
47
100
AcDbScale
 70
     0
300
1/4" = 1'-0"
140
0.25
141
12.0
290
     0
  0
SCALE
  5
61
102
{ACAD_REACTORS
330
47
102
}
330
47
100
AcDbScale
 70
     0
300
3/8" = 1'-0"
140
0.375
141
12.0
290
     0
  0
SCALE
  5
62
102
{ACAD_REACTORS
330
47
102
}
330
47
100
AcDbScale
 70
     0
300
1/2" = 1'-0"
140
0.5
141
12.0
290
     0
  0
SCALE
  5
63
102
{ACAD_REACTORS
330
47
102
}
330
47
100
AcDbScale
 70
     0
300
3/4" = 1'-0"
140
0.75
141
12.0
290
     0
  0
SCALE
  5
64
102
{ACAD_REACTORS
330
47
102
}
330
47
100
AcDbScale
 70
     0
300
1" = 1'-0"
140
1.0
141
12.0
290
     0
  0
SCALE
  5
65
102
{ACAD_REACTORS
330
47
102
}
330
47
100
AcDbScale
 70
     0
300
1-1/2" = 1'-0"
140
1.5
141
12.0
290
     0
  0
SCALE
  5
66
102
{ACAD_REACTORS
330
47
102
}
330
47
100
AcDbScale
 70
     0
300
3" = 1'-0"
140
3.0
141
12.0
290
     0
  0
SCALE
  5
67
102
{ACAD_REACTORS
330
47
102
}
330
47
100
AcDbScale
 70
     0
300
6" = 1'-0"
140
6.0
141
12.0
290
     0
  0
SCALE
  5
68
102
{ACAD_REACTORS
330
47
102
}
330
47
100
AcDbScale
 70
     0
300
1'-0" = 1'-0"
140
12.0
141
12.0
290
     0
  0
ENDSEC
  0
EOF
